» » »

All Time Low - Last Young Renegade Tabs

Artists:  A B C D E F G H I J K L M N O P Q R S T U V W X Y Z # 

Last Young Renegade Tabs

(ver. 1) Click to play this song!
All Time Low
 Rating:
4.3/5 (18 votes)

 Last Young Renegade  lessons Tabs too difficult? Try these video lessons and learn fast
 
                e|-----------------|-----------------|-----------------|---------------|
B|---10---8---7----|---10---8---7----|---10---8---7----|--------7------|
G|-7----7---7---7--|-7----7---7---7--|-7----7---7---7--|-9----9---9-7--|
D|-----------------|-----------------|-----------------|---------------|
A|-----------------|-----------------|-----------------|---------------|
D|-----------------|-----------------|-----------------|---------------|

It basically just repeats this throughout the song - everywhere except the chorus

[Verse 1] (maybe) (plam muting):
    D     A     D     G     D     A     G     A
e|--------------------------------------------------|
B|--------------------------------------------------|
G|--7-----------7-----------7-----------------------|
D|--7-x8--7-----7-x8--5-----7-x8--7-----5-----7-----|
A|--5-----7-x8--5-----5-x8--5-----7-x8--5-x8--7-x8--|
D|--------7-----------5-----------7-----5-----7-----|

[Prechorus]
    D     G     D     A     D     G     G     A
e|--------------------------------------------------|
B|--------------------------------------------------|
G|--7-----------7-----------7-----------------------|
D|--7-x8--5-----7-x8--7-----7-x8--5-----5-----7-----|
A|--5-----5-x8--5-----7-x8--5-----5-x8--5-x8--7-x8--|
D|--------5-----------7-----------5-----5-----7-----|

[Chorus 1]
      D     G     D     A       D     G     Bm    A
e|---------------------------|--------------------------|
B|---------------------------|--------------------------|
G|----7-----------7----------|--7-----------------------|
D|----7-x6--5-----7-x8--7----|--7-x6--5-----9-----7-----|
A|----5-----5-x8--5-----7-x8-|--5-----5-x8--9-x8--7-x8--|
D|----------5-----------7----|--------5-----9-----7-----|

[Verse 2]
    D     A     D     G     D     A     G     A
e|--------------------------------------------------|
B|--------------------------------------------------|
G|--7-----------7-----------7-----------------------|
D|--7-x8--7-----7-x8--5-----7-x8--7-----5-----7-----|
A|--5-----7-x8--5-----5-x8--5-----7-x8--5-x8--7-x8--|
D|--------7-----------5-----------7-----5-----7-----|

[Prechorus]
    D     G     D     A     D     G     G     A
e|--------------------------------------------------|
B|--------------------------------------------------|
G|--7-----------7-----------7-----------------------|
D|--7-x8--5-----7-x8--7-----7-x8--5-----5-----7-----|
A|--5-----5-x8--5-----7-x8--5-----5-x8--5-x8--7-x8--|
D|--------5-----------7-----------5-----5-----7-----|

[Chorus 2]
      D     G     D     A       D     G     Bm    A
e|---------------------------|--------------------------|
B|---------------------------|--------------------------|
G|----7-----------7----------|--7-----------7-----------|
D|----7-x6--5-----7-x8--7----|--7-x6--5-----7-x8--7-----|
A|----5-----5-x8--5-----7-x8-|--5-----5-x8--5-----7-x8--|
D|----------5-----------7----|--------5-----------7-----|

      D     G     D     G       D     G     Bm    A
e|---------------------------|--------------------------|
B|---------------------------|--------------------------|
G|----7-----------7----------|--7-----------------------|
D|----7-x6--5-----7-x8--5----|--7-x6--5-----9-----7-----|
A|----5-----5-x8--5-----5-x8-|--5-----5-x8--9-x8--7-x8--|
D|----------5-----------5----|--------5-----9-----7-----|

[Bridge]
    D     A     Bm    A     D     A     Bm    A
e|--------------------------------------------------|
B|--------------------------------------------------|
G|--7-----------------------7-----------------------|
D|--7-x8--7-----9-----7-----7-x8--7-----9-----7-----|
A|--5-----7-x8--9-x8--7-x8--5-----7-x8--9-x8--7-x8--|
D|--------7-----9-----7-----------7-----9-----7-----|

[Chorus 3]
                  D     A       D     G     Bm    A
e|---------------------------|--------------------------|
B|---------------------------|--------------------------|
G|----------------7----------|--7-----------7-----------|
D|----------------7-x6--7----|--7-x6--5-----7-x8--7-----|
A|----------------5-----7-x8-|--5-----5-x8--5-----7-x8--|
D|----------------------7----|--------5-----------7-----|

      D     G     D     A       D     G     Bm    A
e|---------------------------|--------------------------|
B|---------------------------|--------------------------|
G|----7-----------7----------|--7-----------------------|
D|----7-x6--5-----7-x8--7----|--7-x6--5-----9-----7-----|
A|----5-----5-x8--5-----7-x8-|--5-----5-x8--9-x8--7-x8--|
D|----------5-----------7----|--------5-----9-----7-----|

    Bm    A     
e|--------------|
B|--------------|
G|--------------|
D|--9-----7-----|
A|--9-x8--7-x8--|
E|--9-----7-----|

Finish on a G            
Submit corrections


        Last Young Renegade  lessons Hard to play? Try these video lessons and learn fast Last Young Renegade  lessons
        
↑ Back to top | Tablatures and chords for acoustic guitar and electric guitar, ukulele, drums are parodies/interpretations of the original songs. You may use it for private study, scholarship, research or language learning purposes only