» » »

All Time Low - Last Young Renegade Tabs

Artists:  A B C D E F G H I J K L M N O P Q R S T U V W X Y Z # 

Last Young Renegade Tabs

(ver. 3) Click to play this song!
All Time Low
 Rating:
4.1/5 (31 vote)

 Last Young Renegade  lessons Tabs too difficult? Try these video lessons and learn fast
 
                Tuning: DROP D    D A D G B E

[Intro] (Guitar 2, Arpeggiated):

e|------5---------------------5---------------------5------------------------------------|
B|-----------8-----7---------------8-----7---------------8-----7-----5-----5--7--5-------|
G|----7---7-----7-----------7---7-----7-----------7---7-----7-----------7----------------|    x2
D|---------------------------------------------------------------------------------------|
A|---------------------------------------------------------------------------------------|
E|---------------------------------------------------------------------------------------|

*This can also be played through the verses and pre-chorus*


[Verse] (Guitar 1, Palm muted):

e|---------------------------------------------------------------------------------------|
B|---------------------------------------------------------------------------------------|
G|----4-4-4-4-4-4-4-4--------------------------------------------------------------------|    x2
D|----4-4-4-4-4-4-4-4---5-5-5-5-5-5-5-5---4-4-4-4-4-4-4-4---5-5-5-5-5-5-5-5--------------|
A|----2-2-2-2-2-2-2-2---5-5-5-5-5-5-5-5---4-4-4-4-4-4-4-4---5-5-5-5-5-5-5-5--------------|
E|----------------------5-5-5-5-5-5-5-5---4-4-4-4-4-4-4-4---5-5-5-5-5-5-5-5--------------|

*Pre-chorus and verses are the same*

[Chorus]

e|---------------------------------------------------------------------------------------|
B|---------------------------------------------------------------------------------------|
G|----------------------------------------2-2-2-2-2-2-2-2--------------------------------|
D|----4-4-4-4-4-4-4-4---5-5-5-5-5-5-5-5---2-2-2-2-2-2-2-2---5-5-5-5-5-5-5-5--------------|
A|----4-4-4-4-4-4-4-4---5-5-5-5-5-5-5-5---4-4-4-4-4-4-4-4---5-5-5-5-5-5-5-5--------------|
E|----4-4-4-4-4-4-4-4---5-5-5-5-5-5-5-5---------------------5-5-5-5-5-5-5-5--------------|

*Verse and pre-chorus are repeated*

*Chorus is extended 2nd time through, but the chords are the same*

[Bridge]

e|---------------------------------------------------------------------------------------|
B|----------------------------------------2-2-2-2-2-2-2-2-2-2-2-2-2-2-2-2----------------|
G|----------------------------------------2-2-2-2-2-2-2-2-2-2-2-2-2-2-2-2----------------|    x3
D|----4-4-4-4-4-4-4-4---5-5-5-5-5-5-5-5---2-2-2-2-2-2-2-2-2-2-2-2-2-2-2-2----------------|
A|----4-4-4-4-4-4-4-4---5-5-5-5-5-5-5-5---0-0-0-0-0-0-0-0-0-0-0-0-0-0-0-0----------------|
E|----4-4-4-4-4-4-4-4---5-5-5-5-5-5-5-5---x-x-x-x-x-x-x-x-x-x-x-x-x-x-x-x----------------|

Fourth time is as follows:

e|---------------------------------------------------------------------------------------|
B|----------------------------------------------------------2-2-2-2-2-2-2-2--------------|
G|----------------------------------------------------------2-2-2-2-2-2-2-2--------------|
D|----4-4-4-4-4-4-4-4---5-5-5-5-5-5-5-5---2-2-2-2-2-2-2-2---2-2-2-2-2-2-2-2--------------|
A|----4-4-4-4-4-4-4-4---5-5-5-5-5-5-5-5---2-2-2-2-2-2-2-2---0-0-0-0-0-0-0-0--------------|
E|----4-4-4-4-4-4-4-4---5-5-5-5-5-5-5-5---2-2-2-2-2-2-2-2---x-x-x-x-x-x-x-x--------------|            
Submit corrections


        Last Young Renegade  lessons Hard to play? Try these video lessons and learn fast Last Young Renegade  lessons
        
↑ Back to top | Tablatures and chords for acoustic guitar and electric guitar, ukulele, drums are parodies/interpretations of the original songs. You may use it for private study, scholarship, research or language learning purposes only