Home » A » All Time Low »

All Time Low - Last Young Renegade Bass

Artists:  A B C D E F G H I J K L M N O P Q R S T U V W X Y Z # 

Last Young Renegade Bass

(ver. 1) Click to play this song!
All Time Low
 Rating:
4.3/5 (9 votes)
                [Verse]

G|---------------------------------------------------------------------------|
D|---------------------------------------------------------------------------|
A|-2-2-2-2-2-----------------------------------------------------------------| 6 times
E|-----------4-4-4-5-5-5-5-5-4-4-4-2-2-2-2-2-2-4-4-5-5-5-5-7-7-7-7-----------|

[Chorus]

G|---------------------------------------------------------------------------|
D|---------------------------------------------------------------------------| 2 times
A|-5-5-5-5------------------------2-2-2-2------------------------------------|
E|----------5--3-3-3-3-3-3-3-3-------------2--3-3-3-3-3-3-3-3----------------|

[Verse 2]

G|---------------------------------------------------------------------------|
D|---------------------------------------------------------------------------|
A|-2-2-2-2-2-----------------------------------------------------------------| 6 times
E|-----------4-4-4-5-5-5-5-5-4-4-4-2-2-2-2-2-2-4-4-5-5-5-5-7-7-7-7-----------|

[Chorus]

G|---------------------------------------------------------------------------|
D|---------------------------------------------------------------------------| 2 times
A|-5-5-5-5------------------------2-2-2-2------------------------------------|
E|----------5--3-3-3-3-3-3-3-3-------------2--3-3-3-3-3-3-3-3----------------|

[Bridge]

G|---------------------------------------------------------------------------|
D|---------------------------------------------------------------------------|
A|---------------------------------------------------------------------------|
E|-4-4-4-4-4-4-4-4-5-5-5-5-5-5-5-5-7-7-7-7-7-7-7-7-7-7-7-7-7-7-7-7-----------|

G|---------------------------------------------------------------------------|
D|---------------------------------------------------------------------------|
A|---------------------------------------------------------------------------|
D|-4-4-4-4-4-4-4-4-5-5-5-5-5-5-5-5-7-7-7-7-7-7-7-7-9-9-9-9-9-9-9-9-----------|

[Chorus]

G|---------------------------------------------------------------------------|
D|---------------------------------------------------------------------------| 4 times
A|-5-5-5-5------------------------2-2-2-2------------------------------------|
E|----------5--3-3-3-3-3-3-3-3-------------2--3-3-3-3-3-3-3-3----------------|

G|---------------------------------------------------------------------------|
D|---------------------------------------------------------------------------|
A|---------------------------------------------------------------------------|
E|--2-2-2-2-2-2-2-2-2--3-3-3-3-3-3-3-3-3-------------------------------------|
            
Submit corrections

↑ Back to top | Tablatures and chords for acoustic guitar and electric guitar, ukulele, drums are parodies/interpretations of the original songs. You may use it for private study, scholarship, research or language learning purposes only