» » »

New Found Glory - Kiss Me Bass

Artists:  A B C D E F G H I J K L M N O P Q R S T U V W X Y Z # 

Kiss Me Bass

(ver. 2) Click to play this song!
New Found Glory
 Rating:
4/5 (4 votes)

 Kiss Me lessons Tabs too difficult? Try these video lessons and learn fast
 
                


The last tab for this song was good, but it needed a few corrections, and I added a 
couple new parts to the song that make it sound better. I'm postitive that it's all correct.

Also, I don't palm mute any notes in this song because I don't like the way it sounds, 
but that's up to you.


Standard tuning

*-palm mute
/-slide
~-let ring


Intro (no bass)

Verse
|--------|--------|--------|--------|--------|--------|--------|
|--------|--------|--------|--------|--------|--------|--------|
|5~------|5~------|5~------|5~------|5~------|5~------|5~------|
|--------|--------|--------|--------|--------|--------|--------|

|------------------|
|------------------|
|------------------|
|-3333333333333333-|
  ****************

Chorus
|-------------------------------------------------------|
|-------------------------------------------------------|
|--------------------5-5-5-52-22-2-2--------------------|
|-0-0-0-05-55-5-5-----------------------0-0-0-05-55-5-5-|


|-------------------------------------------------------|
|-------------------------------------------------------|
|-5-5-5-5-5-5-5-5--4-4-4-4-4-4-4-4-4--------------------|
|---------------------------------------0-0-0-05-55-5-5-|
  * * * * * * * *  * * * * * * * * *
    (These are fast eighth notes)

|-------------------------------------------------------|
|-------------------------------------------------------|
|--5-5--4-4--2-2--0-0-----------------------------------|
|-----------------------3-3--3-3--3333-5~---------------|


Pre verse
|----777--|----677--|----577--|----677-|
|--7-----7|--7-----7|--7-----7|--7-----|
|5--------|5--------|5--------|5-------|
|---------|---------|---------|--------|


Verse
|-----------------|-----------------|-----------------|-----------------|
|---------------57|---------------57|---------------57|---------------57|
|5--5--5--55-55---|5--5--5--55-55---|5--5--5--55-55---|5--5--5--55-55---|
|-----------------|-----------------|-----------------|-----------------|

|-----------------|-----------------|-------------------|
|---------------57|---------------57|---------------57--|
|5--5--5--55-55---|5--5--5--55-55---|5--5--5--55-55-----|
|-----------------|-----------------|-------------------|

|------------------|
|------------------|
|------------------|
|-3333333333333333-|
  ****************

Chorus
|-------------------------------------------------------|
|-------------------------------------------------------|
|--------------------5-5-5-52-22-2-2--------------------|
|-0-0-0-05-55-5-5-----------------------0-0-0-05-55-5-5-|


|-------------------------------------------------------|
|-------------------------------------------------------|
|-5-5-5-5-5-5-5-5--4-4-4-4-4-4-4-4-4--------------------|
|---------------------------------------0-0-0-05-55-5-5-|
  * * * * * * * *  * * * * * * * * *

|-------------------------------------------------------|
|-------------------------------------------------------|
|--5-5--4-4--2-2--0-0-----------------------------------|
|-----------------------3-3--3-3--3333-5~---------------|


Interlude
|-77-------------66------------55---------------66-------------|
|--------------------------------------------------------------|
|--------------------------------------------------------------|
|--------------------------------------------------------------|


|----777--|----677--|----577--|-----------------|
|--7-----7|--7-----7|--7-----7|-----------------|
|5--------|5--------|5--------|-----------------|
|---------|---------|---------|-333333333333333-|
                                ***************

Drums
|------------------------------------------------------|
|------------------------------------------------------|
|------------------------------------------------------|
|------------------------------------------------------|

|------------------------------------------------------|
|------------------------------------------------------|
|-(5-5-5-5-5-5-5-5-4-4-4-4-4-4-4-4)--------------------|
|--------------------------------------0-0-0-05-55-5-5-|
   * * * * * * * * * * * * * * * *

() = These are optional, and not played in the song, but I think it's a nice bridge back 
into the chorus.

|------------------------------------------------------|
|------------------------------------------------------|
|--5-5--4-4--2-2--0-0----------------------------------|
|-----------------------3-3--3-3--3333-5~--------------|


Outro
|----777--|----677--|----577--|----677-|
|--7-----7|--7-----7|--7-----7|--7-----|
|5--------|5--------|5--------|5-------|
|---------|---------|---------|--------|

|----777--|----677--|----577--|----677-|
|--7-----7|--7-----7|--7-----7|--7-----|
|5--------|5--------|5--------|5-------|
|---------|---------|---------|--------|

|-----------------|-----------------|-----------------|-----------------|
|---------------57|---------------57|---------------57|---------------57|
|5--5--5--55-55---|5--5--5--55-55---|5--5--5--55-55---|5--5--5--55-55---|
|-----------------|-----------------|-----------------|-----------------|

|-----------------|-----------------|-----------------|-----------------|
|---------------57|---------------57|---------------57|---------------57|
|5--5--5--55-55---|5--5--5--55-55---|5--5--5--55-55---|5--5--5--55-55---|
|-----------------|-----------------|-----------------|-----------------|


end on
|--------|
|--------|
|-5~/17~-|
|--------|

(The slide from the regular D to the octave D makes the end sound more full and 
all-around better, in my opinion)
            
Submit corrections


        Kiss Me lessons Hard to play? Try these video lessons and learn fast Kiss Me lessons
        
↑ Back to top | Tablatures and chords for acoustic guitar and electric guitar, ukulele, drums are parodies/interpretations of the original songs. You may use it for private study, scholarship, research or language learning purposes only