» » »

New Found Glory - Kiss Me Tabs

Artists:  A B C D E F G H I J K L M N O P Q R S T U V W X Y Z # 

Kiss Me Tabs

(ver. 3) Click to play this song!
New Found Glory
 Rating:
4/5 (4 votes)

 Kiss Me lessons Tabs too difficult? Try these video lessons and learn fast
 
                By-Francis
S H C ,Lucena City,Philippines

Gtr I ( e b g d A E ) - 
Gtr II ( e b g d A E ) - 

Intro-
Gtr I (clean)
    D            DM7             D7           DM7
|--x-x-x-xxxx-x--x-x-x-xxxx-x--x-x-x-xxxx-x--x-x-x-xxxx-x------|
|--7-7-7-7777-7--7-7-7-7777-7--7-7-7-7777-7--7-7-7-7777-7------|
|--7-7-7-7777-7--6-6-6-6666-6--5-5-5-5555-5--6-6-6-6666-6------|
|--7-7-7-7777-7--7-7-7-7777-7--7-7-7-7777-7--7-7-7-7777-7------|
|--5-5-5-5555-5--5-5-5-5555-5--5-5-5-5555-5--5-5-5-5555-5------|
|--------------------------------------------------------------|

Verse-

Gtr I (clean)
|--x-x-x-xxxx-x--x-x-x-xxxx-x--x-x-x-xxxx-x--x-x-x-xxxx-x------|
|--7-7-7-7777-7--7-7-7-7777-7--7-7-7-7777-7--7-7-7-7777-7------|
|--7-7-7-7777-7--6-6-6-6666-6--5-5-5-5555-5--6-6-6-6666-6------|
|--7-7-7-7777-7--7-7-7-7777-7--7-7-7-7777-7--7-7-7-7777-7------|
|--5-5-5-5555-5--5-5-5-5555-5--5-5-5-5555-5--5-5-5-5555-5------|
|--------------------------------------------------------------|

|--x-x-x-xxxx-x--x-x-x-xxxx-x--x-x-x-xxxx-x--------------------|
|--7-7-7-7777-7--7-7-7-7777-7--7-7-7-7777-7--------------------|
|--7-7-7-7777-7--6-6-6-6666-6--5-5-5-5555-5--------------------|
|--7-7-7-7777-7--7-7-7-7777-7--7-7-7-7777-7--------------------|
|--5-5-5-5555-5--5-5-5-5555-5--5-5-5-5555-5--------------------|
|--------------------------------------------------------------|

Breakdown-
Gtr I & II (dist)
|--------------------------------------------------------------|
|--------------------------------------------------------------|
|--------------------------------------------------------------|
|-5--5-5-5-5-5-5-5-5-5-5-5-5-5---------------------------------|
|-5--5-5-5-5-5-5-5-5-5-5-5-5-5---------------------------------|
|-3--3-3-3-3-3-3-3-3-3-3-3-3-3---------------------------------|
     * * * * * * * * * * * * *  
Chorus-
1.
Gtr I(dist)
|--------------------------------------------------------------|
|--------------------------------------------------------------|
|--------------------7-7-777--4-44-4444------------------------|
|-2-2-222--7-77-777--7-7-777--4-44-4444--2-2-222--7-77-777-----|
|-2-2-222--7-77-777--5-5-555--2-22-2222--2-2-222--7-77-777-----|
|-0-0-000--5-55-555----------------------0-0-000--5-55-555-----|

Gtr II(dist)
|--------------------------------------------------------------|
|--------------------------------------------------------------|
|-9-9-999--9-99-999--9-99-999-7-77-7777--9-9-999--9-99-999-----|
|-x-x-xxx--x-xx-xxx--x-xx-xxx-x-xx-xxxx--x-x-xxx--x-xx-xxx-----|
|-7-7-777--7-77-777--7-77-777-5-55-5555--7-7-777--7-77-777-----|
|--------------------------------------------------------------|

2.
Gtr I(dist)
|---------------------------------------------------------------|
|---------------------------------------------------------------|
|-7-7-7-7-7-7-7-7--7-7-7-7-7-7-7-7-7----------------------------|
|-7-7-7-7-7-7-7-7--7-7-7-7-7-7-7-7-7---2-2-222--7-77-777--------|
|-5-5-5-5-5-5-5-5--4-4-4-4-4-4-4-4-4---2-2-222--7-77-777--------|
|--------------------------------------0-0-000--5-55-555--------|
  * * * * * * * *  * * * * * * * * * 

Gtr II(dist)
|---------------------------------------------------------------|
|---------------------------------------------------------------|
|-77-----------77-----------------/----9-9-999--9-99-999--------|
|-77-----------77-----------------/----x-x-xxx--x-xx-xx---------|
|-55-44-55-44--55-44-55-44--------/----7-7-777--7-77-777--------|
|---------------------------------------------------------------|
  ** ** ** **  ** ** ** **  

3.
Gtr I(dist)
|---------------------------------------------------------------|
|---------------------------------------------------------------|
|--7-7--7-7--4-4------------------------------------------------|
|--7-7--7-7--4-4--7-7---55-5-55-5-555----7~---------------------|
|--5-5--4-4--2-2--7-7---55-5-55-5-555----7~---------------------|
|-----------------5-5---33-3-33-3-333----5~---------------------|
Gtr II(dist)
|---------------------------------------------------------------|
|---------------------------------------------------------------|
|--7-7--6-6--4-4--6-6---77-7-77-7-777-------7--6~---------------|
|--x-x--x-x--x-x--x-x---xx-x-xx-x-xxx----7----------------------|
|--5-5--4-4--5-5--4-4---55-5-55-5-555---------------------------|
|---------------------------------------------------------------|

Verse2-
1.
Gtr I (clean)
|--x-x-x-xxxx-x--x-x-x-xxxx-x--x-x-x-xxxx-x--x-x-x-xxxx-x------|
|--7-7-7-7777-7--7-7-7-7777-7--7-7-7-7777-7--7-7-7-7777-7------|
|--7-7-7-7777-7--6-6-6-6666-6--5-5-5-5555-5--6-6-6-6666-6------|
|--7-7-7-7777-7--7-7-7-7777-7--7-7-7-7777-7--7-7-7-7777-7------|
|--5-5-5-5555-5--5-5-5-5555-5--5-5-5-5555-5--5-5-5-5555-5------|
|--------------------------------------------------------------|


Gtr II (dist)
|--------------------------------------------------------------|
|--------------------------------------------------------------|
|--7-7-7-7777-7--6-6-6-6666-6--5-5-5-5555-5--6-6-6-6666-6------|
|--x-x-x-xxxx-x--x-x-x-xxxx-x--x-x-x-xxxx-x--x-x-x-xxxx-x------|
|--5-5-5-5555-5--5-5-5-5555-5--5-5-5-5555-5--5-5-5-5555-5------|
|--------------------------------------------------------------|


2.
Gtr I (clean)
|--x-x-x-xxxx-x--x-x-x-xxxx-x--x-x-x-xxxx-x--------------------|
|--7-7-7-7777-7--7-7-7-7777-7--7-7-7-7777-7--------------------|
|--7-7-7-7777-7--6-6-6-6666-6--5-5-5-5555-5--------------------|
|--7-7-7-7777-7--7-7-7-7777-7--7-7-7-7777-7--------------------|
|--5-5-5-5555-5--5-5-5-5555-5--5-5-5-5555-5--------------------|
|--------------------------------------------------------------|

Gtr II (dist)
|--------------------------------------------------------------|
|--------------------------------------------------------------|
|--7-7-7-7777-7--6-6-6-6666-6--5-5-5-5555-5--------------------|
|--x-x-x-xxxx-x--x-x-x-xxxx-x--x-x-x-xxxx-x--------------------|
|--5-5-5-5555-5--5-5-5-5555-5--5-5-5-5555-5--------------------|
|--------------------------------------------------------------|

Repeat Chorus-

Interlude-



Gtr I (dist)
|--------------------------------------------------------------|
|--------------------------------------------------------------|
|-77-------------66------------55---------------66-------------|
|-77-------------77------------77---------------77-------------|2x
|-55-------------55------------55---------------55-------------|
|--------------------------------------------------------------|

Gtr II (dist)
|--------------------------------------------------------------|
|--------------------------------------------------------------|
|--/11~-9~-/14~-11~---9~--/14~-11~-9---11~--/2-----------------|2x
|--------------------------------------------------------------|
|--------------------------------------------------------------|
|--------------------------------------------------------------|


Chorus2-
1.
Drums
|--------------------------------------------------------------|
|--------------------------------------------------------------|
|--------------------------------------------------------------|
|--------------------------------------------------------------|
|--------------------------------------------------------------|
|--------------------------------------------------------------|


2.
Gtr I(dist)
|---------------------------------------------------------------|
|---------------------------------------------------------------|
|---------------------------------------------------------------|
|--------------------------------------2-2-222--7-77-777--------|
|--------------------------------------2-2-222--7-77-777--------|
|--------------------------------------0-0-000--5-55-555--------|
  
Gtr II(dist)
|---------------------------------------------------------------|
|---------------------------------------------------------------|
|---------------------------------/----9-9-999--9-99-999--------|
|---------------------------------/----x-x-xxx--x-xx-xx---------|
|---------------------------------/----7-7-777--7-77-777--------|
|---------------------------------------------------------------|
     

3.
Gtr I(dist)
|---------------------------------------------------------------|
|---------------------------------------------------------------|
|--7-7--7-7--4-4------------------------------------------------|
|--7-7--7-7--4-4--7-7---55-5-55-5-555----7~---------------------|
|--5-5--4-4--2-2--7-7---55-5-55-5-555----7~---------------------|
|-----------------5-5---33-3-33-3-333----5~---------------------|
Gtr II(dist)
|---------------------------------------------------------------|
|---------------------------------------------------------------|
|--7-7--6-6--4-4--6-6---77-7-77-7-777-------7--6~---------------|
|--x-x--x-x--x-x--x-x---xx-x-xx-x-xxx----7----------------------|
|--5-5--4-4--5-5--4-4---55-5-55-5-555---------------------------|
|---------------------------------------------------------------|

Outro-
Gtr I(dist)
|--------------------------------------------------------------|
|--------------------------------------------------------------|
|-77777-6-7--77777-6-7--77777-5-7--77777-6-7-------------------|
|-77777-7-7--77777-7-7--77777-7-7--77777-7-7-------------------|4x
|-55555-5-5--55555-5-5--55555-5-5--55555-5-5-------------------|
|--------------------------------------------------------------|

Gtr II
Gtr II (dist)
|--------------------------------------------------------------|
|--------------------------------------------------------------|
|--/11~-9~-/14~-11~---9~--/14~-11~-9---11~--/2-----------------|4x
|--------------------------------------------------------------|
|--------------------------------------------------------------|
|--------------------------------------------------------------|


End -
Gtr I(dist)
|--------------------------------------------------------------|
|--------------------------------------------------------------|
|-7~~~~~~~~~~~~~~~~~~~-----------------------------------------|
|-7~~~~~~~~~~~~~~~~~~~-----------------------------------------|
|-5~~~~~~~~~~~~~~~~~~~-----------------------------------------|
|--------------------------------------------------------------|

Gtr II(dist)
|--------------------------------------------------------------|
|--------------------------------------------------------------|
|-/11~~~~~~~~~~~~~~~~~~----------------------------------------|
|--------------------------------------------------------------|
|--------------------------------------------------------------|
|--------------------------------------------------------------|
            
Submit corrections


        Kiss Me lessons Hard to play? Try these video lessons and learn fast Kiss Me lessons
        
↑ Back to top | Tablatures and chords for acoustic guitar and electric guitar, ukulele, drums are parodies/interpretations of the original songs. You may use it for private study, scholarship, research or language learning purposes only