Home » N » New Found Glory »

New Found Glory - Ready And Willing Tabs

Artists:  A B C D E F G H I J K L M N O P Q R S T U V W X Y Z # 

Ready And Willing Tabs

(ver. 1) Click to play this song!
New Found Glory
Tuning: D

e|--------------0h2----------------------0h2-----------|
B|--3-3-3-0-3-3------3---3---3-3-3-0-3-3------3--7b----|
G|--------------------/4-------------------------------| x4
D|-----------------------------------------------------|
A|-----------------------------------------------------|
D|-----------------------------------------------------|


e|------------------------------------------------------|
B|------------------------------------------------------|
G|------------------------------------------------------|
D|--------------------------------------------------0~--|
A|--2-0-----------2-0-4-4-4h5p4---2-0-----------2-0-0~--|
D|------4-4-4h5p4---------------------4-4-4h5p4-----0~--|
            
Submit corrections

↑ Back to top | Tablatures and chords for acoustic guitar and electric guitar, ukulele, drums are parodies/interpretations of the original songs. You may use it for private study, scholarship, research or language learning purposes only