» » »

New Found Glory - Kiss Me Tabs

Artists:  A B C D E F G H I J K L M N O P Q R S T U V W X Y Z # 

Kiss Me Tabs

(ver. 2) Click to play this song!
New Found Glory
 Rating:
4/5 (4 votes)

 Kiss Me lessons Tabs too difficult? Try these video lessons and learn fast
 
                -------------------------------------------------------------------------------
                                   Kiss Me - New Found Glory
-------------------------------------------------------------------------------

Hope I've done an alright job, the chorus I wasn't sure about one bit and the
outro riff's for guitar 1 I wasn't too sure either so just put down what I
thought fit! Any corrections put in the comments and I'll update the tab!

Enjoi! >=D

Tuning: Standard (EADGBe) Capo on II

 /    slide up
 ~    vibrato
 x    Mute note
PM-|  Palm Mute
|1st| 1st time
|2nd| 2nd time

Intro
Guitar 1
e|0-0-0--00--00-0--00--0-0-0--00--00-0--00--0-0-0--00--00-0--00--0-0-0--00---|
B|1-1-1--11--11-1--11--0-0-0--00--00-0--00--1-1-1--11--11-1--11--0-0-0--00---|
G|0-0-0--00--00-0--00--0-0-0--00--00-0--00--3-3-3--33--33-3--33--0-0-0--00---|
D|2-2-2--22--22-2--22--2-2-2--22--22-2--22--2-2-2--22--22-2--22--2-2-2--22---|
A|3-3-3--33--33-3--33--3-3-3--33--33-3--33--3-3-3--33--33-3--33--3-3-3--33---|
E|---------------------------------------------------------------------------|

e|00-0--00-------------------------------------------------------------------|
B|00-0--00-------------------------------------------------------------------|
G|00-0--00-------------------------------------------------------------------|
D|22-2--22-------------------------------------------------------------------|
A|33-3--33-------------------------------------------------------------------|
E|---------------------------------------------------------------------------|

Guitar 2
e|---------------------------------------------------------------------------|
B|---------------------------------------------------------------------------|
G|5-5-5--55--55-5--55--4-4-4--44--44-4--44--3-3-3--33--33-3--33--4-4-4--44---|
D|x-x-x--xx--xx-x--xx--x-x-x--xx--xx-x--xx--x-x-x--xx--xx-x--xx--x-x-x--xx---|
A|3-3-3--33--33-3--33--3-3-3--33--33-3--33--3-3-3--33--33-3--33--3-3-3--33---|
E|---------------------------------------------------------------------------|

e|---------------------------------------------------------------------------|
B|---------------------------------------------------------------------------|
G|44-4--44-------------------------------------------------------------------|
D|xx-x--xx-------------------------------------------------------------------|
A|33-3--33-------------------------------------------------------------------|
E|---------------------------------------------------------------------------|

Verse  - Repeat Intro 1¾ 

Guitar 1 & 2.
e|---------------------------------------------------------------------------|
B|---------------------------------------------------------------------------|
G|---------------------------------------------------------------------------|
D|5--5-5-5-5-5-5-5-5-5-5-5-5-5-5---------------------------------------------|
A|3--3-3-3-3-3-3-3-3-3-3-3-3-3-3---------------------------------------------|
E|---------------------------------------------------------------------------|
     PM------------------------|

Chorus
Guitar 1 & 2
e|---------------------------------------------------------------------------|
B|---------------------------------------------------------------------------|
G|---------------------------------------------------------------------------|
D|7--7-7-7-7-7-7------------------5--5-5-5-5-5-5-5-5-5-5-5-5-5-5--7--7-7-7-7-|
A|5--5-5-5-5-5-5--5--5-5-5-5-5-5--3--3-3-3-3-3-3-2-2-2-2-2-2-2-2--5--5-5-5-5-|
E|----------------3--3-3-3-3-3-3---------------------------------------------|

e|---------------------------------------------------------------------------|
B|---------------------------------------------------------------------------|
G|---------------------------------------------------------------------------|
D|7-7------------------------------5-5-------------5-5--------7--7-7---------|
A|5-5--5--5-5-5-5-5-5--3-3-2-2-3-3-----3-3-2-2-3-3------------5--5-5-5-5-5-5-|
E|-----3--3-3-3-3-3-3------------------------------------------------3-3-3-3-|
                       PM----------------------------|

e|---------------------------------------------------------------------------|
B|---------------------------------------------------------------------------|
G|-------------------------5--5-xx--------------------------5-4--------------|
D|---------5--5-xx-5--5-xx-2--2-xx-5--5-xx-3-----3-----3--5------------------|
A|5-5-5-5--3--3-xx-2--2-xx-0--0-xx-5--5-xx-3--33-3--33-3--5------------------|
E|3-3-3-3--------------------------3--3-xx-1--11-1--11-1--3------------------|
                                              PM    PM

Interlude - Intro (Guitar 1)
Guitar 2
e|---------------------------------------------------------------------------|
B|---------------------------------------------------------------------------|
G|5--------------------------------------------------------------------------|
D|5--------------------------------------------------------------------------|
A|3--------------------------------------------------------------------------|
E|---------------------------------------------------------------------------|

Verse
Chorus

Interlude
Guitar 1 - Play this twice.
e|---------------------------------------------------------------------------|
B|5~~~~-3~-5/8--5~~~~-3~-5/8--5~~~~-3~-5-------------------------------------|
G|----------------------------------------0----------------------------------|
D|---------------------------------------------------------------------------|
A|---------------------------------------------------------------------------|
E|---------------------------------------------------------------------------|

Guitar 2 - Play this twice
                                         |1st| |------------2nd-------------|
e|---------------------------------------------------------------------------|
B|---------------------------------------------------------------------------|
G|5-5-----------4-4-----------3-3---------4-4--------------------------------|
D|5-5-----------5-5-----------x-x---------5-5--------------------------------|
A|3-3-----------3-3-----------3-3---------3-3--5--5-5-5-5-5-5-5-5-5-5-5-5-5-5|
E|---------------------------------------------3--3-3-3-3-3-3-3-3-3-3-3-3-3-3|
                                                  PM------------------------|

Drum Interlude with some guitar feedback.

e|---------------------------------------------------------------------------|
B|---------------------------------------------------------------------------|
G|---------------------------------------------------------5--5-xx-----------|
D|x-x-x-x--7--7-7-7-7-7-7------------------5--5-xx-5--5-xx-2--2-xx-5--5-xx-3-|
A|x-x-x-x--5--5-5-5-5-5-5-5-5-5-5-5-5-5-5--3--3-xx-2--2-xx-0--0-xx-5--5-xx-3-|
E|x-x-x-x-----------------3-3-3-3-3-3-3-3--------------------------3--3-xx-1-|

e|---------------------------------------------------------------------------|
B|---------------------------------------------------------------------------|
G|---------------5-4---------------------------------------------------------|
D|----3-----3--5-------------------------------------------------------------|
A|-33-3--33-3--5-------------------------------------------------------------|
E|-11-1--11-1--3-------------------------------------------------------------|
   PM    PM

Outro
Guitar 2 - plays this x4
e|---------------------------------------------------------------------------|
B|---------------------------------------------------------------------------|
G|----------------------------------------------------------------3--3-3-3-3-|
D|5--5-5-5-5-5-5-5-5-5-5-5-5-5-5--5--5-5-5-5-5-5-5-5-5-5-5-5-5-5--x--x-x-x-x-|
A|3--3-3-3-3-3-3-3-3-3-3-3-3-3-3--2--2-2-2-2-2-2-2-2-2-2-2-2-2-2--3--3-3-3-3-|
E|---------------------------------------------------------------------------|

e|---------------------------------------------------------------------------|
B|---------------------------------------------------------------------------|
G|3-3-3-3-3-3-3-3-3-3--------------------------------------------------------|
D|x-x-x-x-x-x-x-x-x-x--5--5-5-5-5-5-5-5-5-5-5-5-5-5-5------------------------|
A|3-3-3-3-3-3-3-3-3-3--2--2-2-2-2-2-2-2-2-2-2-2-2-2-2------------------------|
E|---------------------------------------------------------------------------|

Guitar 1 - can either play the riff it plays in the interlude or this twice
e|---------------------------------------------------------------------------|
B|---------------------------------------------------------------------------|
G|----5------5-------5------5-------5------5-------5------5------------------|
D|--5------5---5---5------5---5---5------5---5---5------5---5----------------|
A|3------3-------2------2-------1------1-------2------2----------------------|
E|---------------------------------------------------------------------------|

then after that twice play this twice.
e|---------------------------------------------------------------------------|
B|5~~~~-3~-5/8--5~~~~-3~-5/8--5~~~~-3~-5-------------------------------------|
G|----------------------------------------0----------------------------------|
D|---------------------------------------------------------------------------|
A|---------------------------------------------------------------------------|
E|---------------------------------------------------------------------------|

End On
Guitar 1
e|---------------------------------------------------------------------------|
B|/5-------------------------------------------------------------------------|
G|---------------------------------------------------------------------------|
D|---------------------------------------------------------------------------|
A|---------------------------------------------------------------------------|
E|---------------------------------------------------------------------------|

Guitar 2
e|---------------------------------------------------------------------------|
B|---------------------------------------------------------------------------|
G|5--------------------------------------------------------------------------|
D|5--------------------------------------------------------------------------|
A|3--------------------------------------------------------------------------|
E|---------------------------------------------------------------------------|

===============================================================================
            
Submit corrections


        Kiss Me lessons Hard to play? Try these video lessons and learn fast Kiss Me lessons
        
↑ Back to top | Tablatures and chords for acoustic guitar and electric guitar, ukulele, drums are parodies/interpretations of the original songs. You may use it for private study, scholarship, research or language learning purposes only