» » »

New Found Glory - Something I Call Personality Tabs

Artists:  A B C D E F G H I J K L M N O P Q R S T U V W X Y Z # 

Something I Call Personality Tabs

(ver. 2) Click to play this song!
New Found Glory
 Rating:
4/5 (4 votes)

 Something I Call Personality lessons Tabs too difficult? Try these video lessons and learn fast
 
                -alright kids, this is my first tab, so dont be too judgemental
Intro

first time-
e|-------------------------------------|
B|-------------------------------------|
G|-----1------1------------------------|
D|-2-4---2------4-2----4-2-----2-4-2---|
A|-------------------------2-----------|
E|-------------------------------------|

every time after that-
e|-------------------------------------|
B|-------------------------------------|
G|-----1------1------------------------|
D|---4---2------4-2----4-2-----2-4-2---|
A|-------------------------2-----------|
E|-------------------------------------|

filler-
e|-------------------------------------|
B|-------------------------------------|
G|----------2-2-2-2---------4-4-4-4----|
D|--2-2-2-2-2-2-2-2-4-4-4-4-4-4-4-4----|
A|--2-2-2-2-0-0-0-0-4-4-4-4-2-2-2-2----|
E|--0-0-0-0---------2-2-2-2------------|

Verse-
e|-------------------------------------|
B|-------------------------------------|
G|---2--------2----2-4----4-2----------|
D|---2-2----2-2----2-4----4-2----------|
A|---0-2----2-0----0-2----2-0----------|
E|-----0----0--------------------------|

Pre Chorus (I'd Like to think...)
e|-------------------------------------|
B|-------------------------------------|
G|-------------2-2-2-2-----------------|
D|--4-4-4-4----2-2-2-2-----------------|
A|--4-4-4-4----0-0-0-0-----------------|
E|--2-2-2-2----------------------------|

Chorus (Sort this out.....)
e|-------------------------------------|
B|-------------------------------------|
G|---------2-2-2-2-6-6-6-6-------------|
D|-2-2-2-2-2-2-2-2-6-6-6-6-4-4-4-4-----|
A|-2-2-2-2-0-0-0-0-4-4-4-4-4-4-4-4-----|
E|-0-0-0-0-----------------2-2-2-2-----|

2nd Part (on your own time...)
e|-------------------------------------|
B|-------------------------------------|
G|---------2-2-2-2-6-6-6-6-4-4-4-4-----|
D|-2-2-2-2-2-2-2-2-6-6-6-6-4-4-4-4-----|
A|-2-2-2-2-0-0-0-0-4-4-4-4-2-2-2-2-----|
E|-0-0-0-0-----------------------------|

Intro Again

first time-
e|-------------------------------------|
B|-------------------------------------|
G|-----1------1------------------------|
D|-2-4---2------4-2----4-2-----2-4-2---|
A|-------------------------2-----------|
E|-------------------------------------|

every time after that-
e|-------------------------------------|
B|-------------------------------------|
G|-----1------1------------------------|
D|---4---2------4-2----4-2-----2-4-2---|
A|-------------------------2-----------|
E|-------------------------------------|

Verse Again
e|-------------------------------------|
B|-------------------------------------|
G|---2--------2----2-4----4-2----------|
D|---2-2----2-2----2-4----4-2----------|
A|---0-2----2-0----0-2----2-0----------|
E|-----0----0--------------------------|

(I'd like to think....)
e|-------------------------------------|
B|-------------------------------------|
G|-------------2-2-2-2-----------------|
D|--4-4-4-4----2-2-2-2-----------------|
A|--4-4-4-4----0-0-0-0-----------------|
E|--2-2-2-2----------------------------|

Chorus (Sort this out.....)
e|-------------------------------------|
B|-------------------------------------|
G|---------2-2-2-2-6-6-6-6-------------|
D|-2-2-2-2-2-2-2-2-6-6-6-6-4-4-4-4-----|
A|-2-2-2-2-0-0-0-0-4-4-4-4-4-4-4-4-----|
E|-0-0-0-0-----------------2-2-2-2-----|

2nd Part (on your own time...)
e|-------------------------------------|
B|-------------------------------------|
G|---------2-2-2-2-6-6-6-6-4-4-4-4-----|
D|-2-2-2-2-2-2-2-2-6-6-6-6-4-4-4-4-----|
A|-2-2-2-2-0-0-0-0-4-4-4-4-2-2-2-2-----|
E|-0-0-0-0-----------------------------|

Bridge
First part
e|-------------------------------------|
B|-------------------------------------|
G|-------------------------------------|
D|-2------------------------2----------|
A|-2--hold for a while then 2--and hold|
E|-0------------------------0----------|
then   (no matter how stupid....)
e|-------------------------------------|
B|-------------------------------------|
G|---------2----2-6-----6-4------------|
D|--2----2-2----2-6-----6-4------------|
A|--2----2-0----0-4-----4-2------------|
E|--0----0-----------------------------|

then

Chorus (Sort this out.....)
e|-------------------------------------|
B|-------------------------------------|
G|---------2-2-2-2-6-6-6-6-------------|
D|-2-2-2-2-2-2-2-2-6-6-6-6-4-4-4-4-----|
A|-2-2-2-2-0-0-0-0-4-4-4-4-4-4-4-4-----|
E|-0-0-0-0-----------------2-2-2-2-----|

2nd Part (on your own time...)
e|-------------------------------------|
B|-------------------------------------|
G|---------2-2-2-2-6-6-6-6-4-4-4-4-----|
D|-2-2-2-2-2-2-2-2-6-6-6-6-4-4-4-4-----|
A|-2-2-2-2-0-0-0-0-4-4-4-4-2-2-2-2-----|
E|-0-0-0-0-----------------------------|

and finish off with....

e|-------------------------------------|
B|-------------------------------------|
G|-----1------1------------------------|
D|-2-4---2------4-2----4-2-----2-4-2---|
A|-------------------------2-----------|
E|-------------------------------------|

end on...
e|-------------------------------------|
B|-------------------------------------|
G|-------------------------------------|
D|-4-2---------------------------------|
A|-------------------------------------|
E|-------------------------------------|
            
Submit corrections


        Something I Call Personality lessons Hard to play? Try these video lessons and learn fast Something I Call Personality lessons
        
↑ Back to top | Tablatures and chords for acoustic guitar and electric guitar, ukulele, drums are parodies/interpretations of the original songs. You may use it for private study, scholarship, research or language learning purposes only