Home » N » New Found Glory »

New Found Glory - Kiss Me Bass

Artists:  A B C D E F G H I J K L M N O P Q R S T U V W X Y Z # 

Kiss Me Bass

(ver. 1) Click to play this song!
New Found Glory
 Rating:
4/5 (4 votes)
                No one has done the bass so i thought i'd give it a shot.
i don't play bass i play guitar but there kinda the same thing anyways!!

         *okay this has been updated now!! it should all be correct.so ignor the comment 
left in the comment section. if there are any mistakes then them me now!!!!!!!!!!

standard tuning (E.A.D.G)

Key
*-palm mute
/-slide
~-let ring


Intro (no bass)

Verse
|--------|--------|--------|--------|--------|--------|--------|
|--------|--------|--------|--------|--------|--------|--------|
|5-------|5-------|5-------|5-------|5-------|5-------|5-------|
|--------|--------|--------|--------|--------|--------|--------|

|------------------|
|------------------|
|------------------|
|-3--3333333333333-|
     *************

Chorus
|--------------------------------------------------------------|
|--------------------------------------------------------------|
|--------------------5-5-555--2-22-2222------------------------|
|-0-0-000--5-55-555----------------------0-0-000--5-55-555-----|


|---------------------------------------------------------------|
|---------------------------------------------------------------|
|-5-5-5-5-5-5-5-5--4-4-4-4-4-4-4-4-4----------------------------|
|--------------------------------------0-0-000--5-55-555--------|
  * * * * * * * *  * * * * * * * * *

|---------------------------------------------------------------|
|---------------------------------------------------------------|
|--5-5--4-4--2-2------------------------------------------------|
|-----------------5-5---33-3-33-3-333---/5~---------------------|


Pre verse
|----77--|----67--|----57--|----67--|
|--7----7|--7----7|--7----7|--7-----|
|5-------|5-------|5-------|5-------|
|--------|--------|--------|--------|


Verse
|----------------|----------------|----------------|----------------|
|--------------57|--------------57|--------------57|--------------57|
|5-----5---5-----|5-----5---5-----|5-----5---5-----|5-----5---5-----|
|----------------|----------------|----------------|----------------|

|----------------|----------------|----------------|
|--------------57|--------------57|--------------57|
|5-----5---5-----|5-----5---5-----|5-----5---5-----|
|----------------|----------------|----------------|

|------------------|
|------------------|
|------------------|
|-3--3333333333333-|
     *************

Chorus
|--------------------------------------------------------------|
|--------------------------------------------------------------|
|--------------------5-5-555--2-22-2222------------------------|
|-0-0-000--5-55-555----------------------0-0-000--5-55-555-----|


|---------------------------------------------------------------|
|---------------------------------------------------------------|
|-5-5-5-5-5-5-5-5--4-4-4-4-4-4-4-4-4----------------------------|
|--------------------------------------0-0-000--5-55-555--------|
  * * * * * * * *  * * * * * * * * *

|---------------------------------------------------------------|
|---------------------------------------------------------------|
|--5-5--4-4--2-2------------------------------------------------|
|-----------------5-5---33-3-33-3-333---/5~---------------------|


Interlude
|-77-------------66------------55---------------66-------------|
|--------------------------------------------------------------|
|--------------------------------------------------------------|
|--------------------------------------------------------------|


|----77--|----67--|----57--|-----------------|
|--7----7|--7----7|--7----7|-----------------|
|5-------|5-------|5-------|-----------------|
|--------|--------|--------|-3—3333333333333-|
                               *************

Drums
|--------------------------------------------------------------|
|--------------------------------------------------------------|
|--------------------------------------------------------------|
|--------------------------------------------------------------|

|--------------------------------------------------------------|
|--------------------------------------------------------------|
|--------------------------------------------------------------|
|-----------------------------------/--0-0-000--5-55-555-------|


|---------------------------------------------------------------|
|---------------------------------------------------------------|
|--5-5--4-4--2-2------------------------------------------------|
|-----------------5-5---33-3-33-3-333----5~---------------------|


Outro
|----77--|----67--|----57--|----67--|
|--7----7|--7----7|--7----7|--7-----|
|5-------|5-------|5-------|5-------|
|--------|--------|--------|--------|

|----77--|----67--|----57--|----67--|
|--7----7|--7----7|--7----7|--7-----|
|5-------|5-------|5-------|5-------|
|--------|--------|--------|--------|

|----------------|----------------|----------------|----------------|
|-------------5/7|-------------5/7|-------------5/7|-------------5/7|
|5-----5---5-----|5-----5---5-----|5-----5---5-----|5-----5---5-----|
|----------------|----------------|----------------|----------------|

|----------------|----------------|----------------|----------------|
|-------------5/7|-------------5/7|-------------5/7|-------------5/7|
|5-----5---5-----|5-----5---5-----|5-----5---5-----|5-----5---5-----|
|----------------|----------------|----------------|----------------|

end on
|--------|
|--------|
|-/5~----|
|--------|


thats it

please comment and rate it :)
and if there are any mistakes then please let me know and i'll try to fix it.
            
Submit corrections

↑ Back to top | Tablatures and chords for acoustic guitar and electric guitar, ukulele, drums are parodies/interpretations of the original songs. You may use it for private study, scholarship, research or language learning purposes only