» » »

Muse - Hysteria Tabs

Artists:  A B C D E F G H I J K L M N O P Q R S T U V W X Y Z # 

Hysteria Tabs

(ver. 11) Click to play this song!
Muse
 Rating:
4.4/5 (8 votes)


 Hysteria lessons Tabs too difficult? Try these video lessons and learn fast
 
                [Intro]

e|-5-7-8-7-5-4-----7-8-7-5-|----7-8-7-5---7-8-7-8-7-5-|
B|-5---------3-------------|-6----------5-------------|
G|-5---------4-------------|-7----------5-------------|
D|-----------2-------------|-7----------7-------------|
A|-0-----------------------|-5----------7-------------|
E|-------------------------|------------5-------------|

e|-5-7-8-7-5-4-----7-8-7-5-|----7-8-7-5---7-8-7-8-----|
B|-5---------3-------------|-6----------5---------0---|
G|-5---------4-------------|-7----------5-------------|
D|-----------2-------------|-7----------7-------------|
A|-0-----------------------|-5----------7-------------|
E|-------------------------|------------5-------------|

[Verse]

e|-------0-----0-0-|-1---5-5-4-5--------|
B|-1-1-----0-------|---3---------5--1-1-|
G|-----2-----1-----|--------------------|
D|-----------------|-0------------------|
A|---0-------------|------------0-------|
E|---------0-------|--------------------|

e|-------0-----0-0-|-1---5-5-4-5--------|
B|---1-----0-------|---3---------5------|
G|-----2-----1-----|--------------------|
D|-----------------|-0------------------|
A|---0-------------|------------0-------|
E|---------0-------|--------------------|

[Chorus]

e|----------0-0-0---1-|---1-1-0-1-1--0-0----|
B|-5-5--5-4-1-----3-0-|----------------1----|
G|----------0-------0-|---2-----2------2--2-|
D|----------2-------0-|-0-------0------2----|
A|----------3-3-----2-|----------------0----|
E|------------------3-|---------------------|

e|----------0-0-0---1-|---1-1-0-1-1--0-0----|
B|-5-5--5-4-1-----3-0-|----------------0----|
G|----------0-------0-|---2-----2------1----|
D|----------2-------0-|-0-------0------2----|
A|----------3-3-----2-|----------------2----|
E|------------------3-|----------------0----|

[Bridge]

e|-5-7-8-7-5-4-----7-8-7-5-|----7-8-7-5---7-8-7-8-7-5-|
B|-5---------3-------------|-6----------5-------------|
G|-5---------4-------------|-7----------5-------------|
D|-----------2-------------|-7----------7-------------|
A|-0-----------------------|-5----------7-------------|
E|-------------------------|------------5-------------|

e|-5-7-8-7-5-4-----7-8-7-5-|----7-8-7-5---7-8-7-8-----|
B|-5---------3-------------|-6----------5---------0---|
G|-5---------4-------------|-7----------5-------------|
D|-----------2-------------|-7----------7-------------|
A|-0-----------------------|-5----------7-------------|
E|-------------------------|------------5-------------|

[Verse]

e|-------0-----0-0-|-1---5-5-4-5--------|
B|-1-1-----0-------|---3---------5--1-1-|
G|-----2-----1-----|--------------------|
D|-----------------|-0------------------|
A|---0-------------|------------0-------|
E|---------0-------|--------------------|

e|-------0-----0-0-|-1---5-5-4-5--------|
B|---1-----0-------|---3---------5------|
G|-----2-----1-----|--------------------|
D|-----------------|-0------------------|
A|---0-------------|------------0-------|
E|---------0-------|--------------------|

[Chorus]

e|----------0-0-0---1-|---1-1-0-1-1--0-0----|
B|-5-5--5-4-1-----3-0-|----------------1----|
G|----------0-------0-|---2-----2------2--2-|
D|----------2-------0-|-0-------0------2----|
A|----------3-3-----2-|----------------0----|
E|------------------3-|---------------------|

e|----------0-0-0---1-|---1-1-0-1-1--0-0----|
B|-5-5--5-4-1-----3-0-|----------------0----|
G|----------0-------0-|---2-----2------1----|
D|----------2-------0-|-0-------0------2----|
A|----------3-3-----2-|----------------2----|
E|------------------3-|----------------0----|

[Riff]

e|---------0----------------------|
B|---3---3-----3---3p2---2p1--1p0-|
G|---1---1-----1---1-----0----0---|
D|---0---0------------------------|
A|---2---2------------------------| x3
E|-0---0-----0---0-----0-----0--0-|

e|---------0---3---0--3--3p0-3-5--|
B|---3---3-----3---0--3--3p0-3/5--|
G|---1---1------------------------|
D|---0---0------------------------|
A|---2---2------------------------|
E|-0---0-----0---0---0---0---0----|

[Solo]

e|----12----13----13-12----|---12---13---13-12---|---13----17----13----12-|----12----13----13-12----12-|
B|-10----10----10-------10-|-9----9----9-------9-|------------------------|-10----10----10-------10----|
G|-------------------------|---------------------|-14---14----14----14----|----------------------------|
D|-------------------------|---------------------|-0----0-----0-----0-----|----------------------------|
A|-0-----0-----0-----0-----|---------------------|------------------------|-0-----0-----0-----0--------|
E|-------------------------|-0----0----0----0----|------------------------|----------------------------|

e|----12----13----13-12----|---12---13---13-12---|---13----17----13----12-|-12----10----8-----7--------|
B|-10----10----10-------10-|-9----9----9-------9-|------------------------|-13----10----8-----6--------|
G|-------------------------|---------------------|-14---14----14----14----|-14-14-10-10-9--9--7--7-----|
D|-------------------------|---------------------|-0----0-----0-----0-----|-------------------0--------|
A|-0-----0-----0-----0-----|---------------------|------------------------|-0-----0-----0--------------|
E|-------------------------|-0----0----0----0----|------------------------|----------------------------|


e|--8---8-7-5---7---7-8-|---10-----10-8-7--8------10-8-7-|
B|---8-----------8------|-----10-------------10----------|
G|----9-----------7-----|-------10--------------9--------|
D|------------5---------|-0------------------------------|
A|----------------------|-----------------0--------------|
E|-8--------------------|--------------------------------|


e|--8---8-7-5---7---7-8-|---10-----10-8-7--8-------------|
B|---8-----------8------|-----10-------------10----------|
G|----9-----------7-----|-------10--------------9--------|
D|------------5---------|-0------------------------------|
A|----------------------|-----------------0--------------|
E|-8--------------------|--------------------------------|

[Chorus]

e|----------0-0-0---1-|---1-1-0-1-1--0-0----|
B|-5-5--5-4-1-----3-0-|----------------1----|
G|----------0-------0-|---2-----2------2--2-|
D|----------2-------0-|-0-------0------2----|
A|----------3-3-----2-|----------------0----|
E|------------------3-|---------------------|

e|----------0-0-0---1-|---1-1-0-1-1--0-0----|
B|-5-5--5-4-1-----3-0-|----------------0----|
G|----------0-------0-|---2-----2------1----|
D|----------2-------0-|-0-------0------2----|
A|----------3-3-----2-|----------------2----|
E|------------------3-|----------------0----|

[Outro]

e|---------0----------------------|
B|---3---3-----3---3p2---2p1--1p0-|
G|---1---1-----1---1-----0----0---|
D|---0---0------------------------|
A|---2---2------------------------| x6
E|-0---0-----0---0-----0-----0--0-|            
Submit corrections



        Hysteria lessons Hard to play? Try these video lessons and learn fast Hysteria lessons
        
↑ Back to top | Tablatures and chords for acoustic guitar and electric guitar, ukulele, drums are parodies/interpretations of the original songs. You may use it for private study, scholarship, research or language learning purposes only