Home » M » Muse »

Muse - Psycho Bass

Artists:  A B C D E F G H I J K L M N O P Q R S T U V W X Y Z # 

Psycho Bass

(ver. 1) Click to play this song!
Muse
 Rating:
4/5 (4 votes)
                INTRO

-no bass until measure 7 come in with drum's sixteenth notes-

G|---------------|----------------|
D|---------------|----------------|  
A|5-5-5-5-5-5-5-5|5-5-5-5-5-5-5-5\|
D|---------------|----------------|

G|---------------|---------------|---------------|---------------|
D|---------------|---------------|---------------|---------------|  
A|---------------|---------------|---------------|---------------|
D|-0-3-0-5-0-3-0-|-0-3-0-5~--3---|-0-3-0-5-0-3-0-|-0-3-0-5~--5~--|

G|---------------|---------------|---------------|---------------|
D|---------------|---------------|---------------|---------------|  
A|---------------|---------------|---------------|-----------0---|
D|-0-3-0-5-0-3-0-|-0-3-0-5~--3---|-0-3-0-5-0-3-0-|-0-3-0-5~------|

G|---------------|---------------|---------------|---------------|
D|---------------|---------------|---------------|-----3-----2---|
A|-0-3-0-4-0-3-0-|-0-3-0-4~--3---|---------------|---------------|
D|---------------|---------------|-5-7-5-8-5-7---|-3-3---2-2-----|

G|----------|----------|----------|----------| 
D|----------|----------|----------|----------| 
A|8-5-7-4-3-|----------|8-5-7-4-3-|----------|
D|----------|8-5-7-4-3-|----------|8-5-7-4-3-|



VERSE 1

x2 G|-------------|-------------|-------------|-------------| 
   D|-------------|-------------|-------------|-------------|
   A|-------------|-------------|-------------|-------------|
   D|0-00-00-0-035|0-00-00-0-035|0-00-00-0-530|0-00-00-0-035|

   G|-------------|-------------|-------------|-------------|
   D|-------------|-------------|-------------|-------------|
   A|0-00-00-0-034|-------------|-------------|-------------|
   D|-------------|5-55-55-5-578|3-33-33-3-357|2-22-22-2-235|

   G|-------------|-------------|-------------|-------------|
   D|-------------|-------------|-------------|-------------|
   A|-------------|-------------|-------------|-------------|
   D|0-00-00-0-035|0-00-00-0-035|0-00-00-0-035|0-00-00-0-035|


G|-------------|-------------|-------------|-------------|
D|-------------|-------------|-------------|----0-5-0-5-3|
A|-------------|-------------|-------------|-------------|
D|0-00-00-0-035|0-00-00-0-035|0-00-00-0-035|-------------|



CHORUS 1 

G|---------------|---------------|---------------|-------------|
D|---------------|---------------|---------------|---0-5-0-5-3-|  
A|---------------|---------------|---------------|-------------|
D|-0-3-0-5-0-3-0-|-0-3-0-5~--3---|-0-3-0-5-0-3-0-|-------------|

G|---------------|---------------|---------------|-------------|
D|---------------|---------------|---------------|-------------|  
A|---------------|---------------|---------------|-------------|
D|-0-3-0-5-0-3-0-|-0-3-0-5~--3---|-0-3-0-5-0-3-0-|---0-3-0-5-7-|

G|---------------|---------------|---------------|---------------|
D|---------------|---------------|---------------|-----3-----2---|
A|-0-3-0-4-0-3-0-|-0-3-0-4~--3---|---------------|---------------|
D|---------------|---------------|-5-7-5-8-5-7---|-3-3---2-2-----|

POST CHORUS 1

G|----------|----------|----------|----------| 
D|----------|----------|----------|----------| 
A|8-5-7-4-3-|----------|8-5-7-4-3-|----------|
D|----------|8-5-7-4-3-|----------|8-5-7-4-3-|

G|----------|----------|----------|----------| 
D|----------|----------|----------|----------| 
A|8-5-7-4-3-|----------|8-5-7-4-3-|----------|
D|----------|8-5-7-4-3-|----------|8-5-7-4-3-|


VERSE 2 

x2 G|-------------|-------------|-------------|-------------| 
   D|-------------|-------------|-------------|-------------|
   A|-------------|-------------|-------------|-------------|
   D|0-00-00-0-035|0-00-00-0-035|0-00-00-0-530|0-00-00-0-035|

   G|-------------|-------------|-------------|-------------|
   D|-------------|-------------|-------------|-------------|
   A|0-00-00-0-034|-------------|-------------|-------------|
   D|-------------|5-55-55-5-578|3-33-33-3-357|2-22-22-2-235|

   G|-------------|-------------|-------------|-------------|
   D|-------------|-------------|-------------|-------------|
   A|-------------|-------------|-------------|-------------|
   D|0-00-00-0-035|0-00-00-0-035|0-00-00-0-035|0-00-00-0-035|


G|-------------|-------------|-------------|-------------|
D|-------------|-------------|-------------|----0-5-0-5-3|
A|-------------|-------------|-------------|-------------|
D|0-00-00-0-035|0-00-00-0-035|0-00-00-0-035|-------------|




CHORUS 2

G|---------------|---------------|---------------|-------------|
D|---------------|---------------|---------------|---0-5-0-5-3-|  
A|---------------|---------------|---------------|-------------|
D|-0-3-0-5-0-3-0-|-0-3-0-5~--3---|-0-3-0-5-0-3-0-|-------------|

G|---------------|---------------|---------------|-------------|
D|---------------|---------------|---------------|-------------|  
A|---------------|---------------|---------------|-------------|
D|-0-3-0-5-0-3-0-|-0-3-0-5~--3---|-0-3-0-5-0-3-0-|---0-3-0-5-7-|

G|---------------|---------------|---------------|---------------|
D|---------------|---------------|---------------|-----3-----2---|
A|-0-3-0-4-0-3-0-|-0-3-0-4~--3---|---------------|---------------|
D|---------------|---------------|-5-7-5-8-5-7---|-3-3---2-2-----|

POST CHORUS 2

G|----------|----------|----------|----------| 
D|----------|----------|----------|----------| 
A|8-5-7-4-3-|----------|8-5-7-4-3-|----------|
D|----------|8-5-7-4-3-|----------|8-5-7-4-3-|

G|----------|----------|----------|----------| 
D|----------|----------|----------|----------| 
A|8-5-7-4-3-|----------|8-5-7-4-3-|----------|
D|----------|8-5-7-4-3-|----------|8-5-7-4-3-|

G|---------|----------|----------|22-4-5-7-7| 
D|---------|----------|00-2-3-5--|----------| 
A|---------|00-3-4-5--|----------|----------|
D|00-3--5-7|----------|----------|----------|


-Guitar solo no bass for 4 bars, come in with vocals-

G|-------------|-------------|-------------|-------------| 
D|-------------|-------------|-------------|-------------|
A|-------------|-------------|-------------|-------------|
D|0-00-00------|0-00-00------|0-00-00------|-------------|


CHORUS 3

G|---------------|---------------|---------------|-------------|
D|---------------|---------------|---------------|---0-5-0-5-3-|  
A|---------------|---------------|---------------|-------------|
D|-0-3-0-5-0-3-0-|-0-3-0-5~--3---|-0-3-0-5-0-3-0-|-------------|

G|---------------|---------------|---------------|-------------|
D|---------------|---------------|---------------|-------------|  
A|---------------|---------------|---------------|-------------|
D|-0-3-0-5-0-3-0-|-0-3-0-5~--3---|-0-3-0-5-0-3-0-|---0-3-0-5-7-|

G|---------------|---------------|---------------|---------------|
D|---------------|---------------|---------------|-----3-----2---|
A|-0-3-0-4-0-3-0-|-0-3-0-4~--3---|---------------|---------------|
D|---------------|---------------|-5-7-5-8-5-7---|-3-3---2-2-----|


BRIDGE/CHORUS 4

G|---------|----------|---------|----------|
D|---------|----------|---------|----------|
A|---------|----------|---------|----------|
D|---------|-----5~-3-|---------|-----5~-3-|

G|---------|---------|---------|------------------------|
D|---------|---------|---------|000000000000000000000000|
A|---------|---------|---------|------------------------|
D|---------|---------|---------|------------------------|

G|---------------|---------------|---------------|---------------|
D|---------------|---------------|---------------|---------------|
A|---------------|---------------|---------------|---------------|
D|-0-3-0-5-0-3-0-|-0-3-0-5~--3---|-0-3-0-5-0-3-0-|-0-3-0-5~--5---|

G|---------------|---------------|---------------|---------------|
D|---------------|---------------|---------------|---------------|
A|---------------|---------------|---------------|-----------3---|
D|-0-3-0-5-0-3-0-|-0-3-0-5~--7---|-0-3-0-5-0-3-0-|-0-3-0-5~------|

G|---------------|---------------|---------------|---------------|
D|---------------|---------------|---------------|---------------|
A|---------------|-------3~--4---|---------------|-------4~--5---|
D|-0-3-0-5-0-3-0-|-0-3-0---------|-0-3-0-5-0-3-0-|-0-3-0---------|

G|---------------|---------------|---------------|---------------|
D|---------------|---------------|---------------|---------------|
A|-0-3-0-4-0-3-0-|-0-3-0-4~--3---|---------------|---------------|
D|---------------|---------------|-5-7-5-8-5-7---|-5-7-5-8~--5---|

G|---------------|---------------|---------------|---------------|
D|---------------|---------------|---------------|-----3-----2---|
A|-0-3-0-4-0-3-0-|-0-3-0-4~--3---|---------------|---------------|
D|---------------|---------------|-5-7-5-8-5-7---|-3-3---2-2-----|



OUTRO


G|----------|----------|----------|---------------| 
D|----------|----------|----------|---------------| 
A|8-5-7-4-3-|----------|8-5-7-4-3-|---------------|
D|----------|8-5-7-4-3-|----------|8-5-7-4-3-0----|
            
Submit corrections

↑ Back to top | Tablatures and chords for acoustic guitar and electric guitar, ukulele, drums are parodies/interpretations of the original songs. You may use it for private study, scholarship, research or language learning purposes only