Home » M » Muse »

Muse - Psycho Tabs

Artists:  A B C D E F G H I J K L M N O P Q R S T U V W X Y Z # 

Psycho Tabs

(ver. 1) Click to play this song!
Muse
 Rating:
4/5 (4 votes)
                INTRO
  riff 1 (just guitar)
e|------------------------------------|
B|------------------------------------|
G|------------------------------------|
D|------------------------------------| x4
A|------------------------------------|
D|-0--3-0-5--0-3-0--0-3-0-5b(6)-5b(6)-|

  riff 2 (all)
e|------------------------------------|----------------------------------|
B|------------------------------------|--------------------13---13-------|
G|------------------------------------|----------------------------------|
D|------------------------------------|-----------------------15---15~---|
A|------------------------------------|----------------------------------|
D|-0--3-0-5--0-3-0--0-3-0-5b(6)-5b(6)-|-0--3-0-5--0-3-0--0---------------|

e|------------------------------------|----------------------------------|
B|------------------------------------|----------------------------------|
G|------------------------------------|----------------------------------|
D|------------------------------------|--------------------3----5--6-7---|
A|------------------------------------|--------------------3----5--6-7---|
D|-0--3-0-5--0-3-0--0-3-0-5b(6)-5b(6)-|-0--3-0-5--0-3-0--0-3--0-5--6-7---|

e|------------------|------------------|---------------------------------|
B|------------------|------------------|---------------------------------|
G|------------------|------------------|---------------------------------|
D|------------------|------------------|---------------------------------|
A|------------------|------------------|--------------------3------4-----|
D|-7--8-7-11--7-8-7-|-7--8-7-11--7-8-7-|-5-5-7-5-8-7-5-3--3---2--2---2-0-|

  solo1 (with bass riff in background)
e|------------------------------------------------------------|
B|------------------------------------------------------------|
G|-------12b--12b-r(12)p10h12p10------------------------------|
D|----------------------------------------10--10--10--10~~~/--|
A|-------------------------------10h11h12---------------------|
D|------------------------------------------------------------|


VERSE
e||----------------------|-------------------------|------------------------|----------------------|
B||----------------------|-------------------------|------------------------|----------------------|
G||----------------------|-------------------------|------------------------|----------------------|
D||----------------------|-------------------------|------------------------|----------------------|
A||----------------------|-------------------------|------------------------|----------------------|
D||-0--0-0--0-0--0-5h6h7-|-0--0-0--0-0--0-10h11h12-|-0--0-0--0-0--0-5p0-3-0-|-0--0-0--0-0--0-5h6h7-|

e|-----------------------|------------------------------|-------------------------|----------------------||
B|-----------------------|------------------------------|-------------------------|----------------------||
G|-----------------------|------------------------------|-------------------------|----------------------||
D|-----------------------|------------------------------|-------------------------|----------------------|| x2
A|-----------------------|------------------------------|-------------------------|----------------------||
D|-3--3-3--3-3--3-8h9h10-|-10--10-10--10-10--9-10h11h12-|-5--5-5--5-5--9-10h11h12-|-5--5-5--5-5--0-5h6h7-||

e|----------------------|-------------------------|------------------------|---------------|
B|----------------------|-------------------------|------------------------|---13---13-----|
G|----------------------|-------------------------|------------------------|---------------|
D|----------------------|-------------------------|------------------------|------15---15~-|
A|----------------------|-------------------------|------------------------|---------------|
D|-0--0-0--0-0--0-5h6h7-|-0--0-0--0-0--0-10h11h12-|-0--0-0--0-0--0-5p0-3-0-|-0-------------|


CHORUS
  riff 2

  just bass (no guitar)


VERSE
e||----------------------|-------------------------|------------------------|----------------------|
B||----------------------|-------------------------|------------------------|----------------------|
G||----------------------|-------------------------|------------------------|----------------------|
D||----------------------|-------------------------|------------------------|----------------------|
A||----------------------|-------------------------|------------------------|----------------------|
D||-0--0-0--0-0--0-5h6h7-|-0--0-0--0-0--0-10h11h12-|-0--0-0--0-0--0-5p0-3-0-|-0--0-0--0-0--0-5h6h7-|

e|-----------------------|------------------------------|-------------------------|----------------------||
B|-----------------------|------------------------------|-------------------------|----------------------||
G|-----------------------|------------------------------|-------------------------|----------------------||
D|-----------------------|------------------------------|-------------------------|----------------------|| x2
A|-----------------------|------------------------------|-------------------------|----------------------||
D|-3--3-3--3-3--3-8h9h10-|-10--10-10--10-10--9-10h11h12-|-5--5-5--5-5--9-10h11h12-|-5--5-5--5-5--0-5h6h7-||

e|----------------------|-------------------------|------------------------|---------------|
B|----------------------|-------------------------|------------------------|---13---13-----|
G|----------------------|-------------------------|------------------------|---------------|
D|----------------------|-------------------------|------------------------|------15---15~-|
A|----------------------|-------------------------|------------------------|---------------|
D|-0--0-0--0-0--0-5h6h7-|-0--0-0--0-0--0-10h11h12-|-0--0-0--0-0--0-5p0-3-0-|-0-------------|


CHORUS
  riff 2


BRIDGE
  just bass
  bass & guitar feedback
e|----------------------|-22~~~~~~~~~~~~~~~~~~~~~-|
B|-13~~~~~~~~~~~~~~~~~--|-------------------------| notes to match the feedback...
G|----------------------|-------------------------|
D|----------------------|-------------------------|
A|----------------------|-------------------------|
D|----------------------|-------------------------|


  just guitar
e|----------------------|-------------------------|------------------------|----------------------|
B|----------------------|-------------------------|------------------------|----------------------|
G|----------------------|-------------------------|------------------------|----------------------|
D|----------------------|-------------------------|------------------------|----------------------|
A|----------------------|-------------------------|------------------------|----------------------|
D|-0--0-0--0-0--0-5h6h7-|-0--0-0--0-0--0-10h11h12-|-0--0-0--0-0--0-5p0-3-0-|-0--0-0--0-0--0-5h6h7-|

e|----------------------|-------------------------|------------------------|------------------|
B|----------------------|-------------------------|------------------------|----13----13------|
G|----------------------|-------------------------|------------------------|----10-10-10-10b~-|
D|----------------------|-------------------------|------------------------|------------------|
A|----------------------|-------------------------|------------------------|------------------|
D|-0--0-0--0-0--0-5h6h7-|-0--0-0--0-0--0-10h11h12-|-0--0-0--0-0--0-5p0-3-0-|-0----------------|

  riff 2b (all)
e|------------------------------------|----------------------------------|
B|------------------------------------|--------------------13----13------|
G|------------------------------------|--------------------10-10-10-10b~-|
D|------------------------------------|----------------------------------|
A|------------------------------------|----------------------------------|
D|-0--3-0-5--0-3-0--0-3-0-5b(6)-5b(6)-|-0--3-0-5--0-3-0--0---------------|

e|------------------------------------|----------------------------------|
B|------------------------------------|----------------------------------|
G|------------------------------------|----------------------------------|
D|------------------------------------|--------------------3----5--6-7---|
A|------------------------------------|--------------------3----5--6-7---|
D|-0--3-0-5--0-3-0--0-3-0-5b(6)-5b(6)-|-0--3-0-5--0-3-0--0-3--0-5--6-7---|

e|------------------|------------------|---------------------------------|
B|------------------|------------------|---------------------------------|
G|------------------|------------------|---------------------------------|
D|------------------|------------------|---------------------------------|
A|------------------|------------------|--------------------3------4-----|
D|-7--8-7-11--7-8-7-|-7--8-7-11--7-8-7-|-5-5-7-5-8-7-5-3--3---2--2---2-0-|


OUTRO
e|------------------------------------|
B|------------------------------------|
G|------------------------------------|
D|------------------------------------| x4
A|------------------------------------|
D|-0--3-0-5--0-3-0--0-3-0-5b(6)-5b(6)-|

e|---------------------------------|---------------------------------|
B|---------------------------------|---------------------------------|
G|-7-7-7-7-7-7-7-7-7-7-7-7-7-7-7-7-|-9-9-9-9-9-9-9-9-9-9-9-9-9-9-9-9-|
D|---------------------------------|---------------------------------|
A|-5-5-5-5-5-5-5-5-5-5-5-5-5-5-5-5-|-7-7-7-7-7-7-7-7-7-7-7-7-7-7-7-7-|
D|---------------------------------|---------------------------------|

e|-------------------------------------------------|
B|-------------------------------------------------|
G|-10-10-10-10-10-10-10-10-10-10-10-10-10-10-10-10-|
D|-------------------------------------------------|
A|-8--8--8--8--8--8--8--8--8--8--8--8--8--8--8--8--|
D|-------------------------------------------------|

e|-------------------------------------------------|
B|-------------------------------------------------|
G|-12-12-12-12-12-12-12-12-12-12-12-12-12-12-12-12-|
D|-------------------------------------------------|
A|-10-10-10-10-10-10-10-10-10-10-10-10-10-10-10-10-|
D|-------------------------------------------------|

e|-------------------------------------------------|
B|-------------------------------------------------|
G|-14-14-14-14-14-14-14-14-14-14-14-14-14-14-14-14-|
D|-------------------------------------------------|
A|-12-12-12-12-12-12-12-12-12-12-12-12-12-12-12-12-|
D|-------------------------------------------------|

e|-------------------------------------------------|
B|-------------------------------------------------|
G|-15-15-15-15-15-15-15-15-15-15-15-15-15-15-15-15-|
D|-------------------------------------------------|
A|-13-13-13-13-13-13-13-13-13-13-13-13-13-13-13-13-|
D|-------------------------------------------------|

e|-------------------------------------------------|
B|-------------------------------------------------|
G|-18-18-18-18-18-18-18-18-18-18-18-18-18-18-18-18-|
D|-------------------------------------------------|
A|-16-16-16-16-16-16-16-16-16-16-16-16-16-16-16-16-|
D|-------------------------------------------------|

e|-------------------------------------------------|
B|-------------------------------------------------|
G|-19-19-19-19-19-19-19-19-19-19-19-19-19-19-19-19-|
D|-------------------------------------------------|
A|-17-17-17-17-17-17-17-17-17-17-17-17-17-17-17-17-|
D|-------------------------------------------------|


OUTRO

e|------------------|------------------|------------------|------------------|
B|------------------|------------------|------------------|------------------|
G|------------------|------------------|------------------|------------------|
D|------------------|------------------|------------------|------------------|
A|------------------|------------------|------------------|------------------|
D|-7--8-7-11--7-8-7-|-7--8-7-11--7-8-7-|-5--7-5-8--5-7-5--|-5--7-5-8--5-7-5--|

e|------------------|------------------|---------------------------------|
B|------------------|------------------|---------------------------------|
G|------------------|------------------|---------------------------------|
D|------------------|------------------|---------------------------------|
A|------------------|------------------|--------------------3------------|
D|-7--8-7-11--7-8-7-|-7--8-7-11--7-8-7-|-5-5-7-5-8-7-5-3--3---2----------|


            
Submit corrections

↑ Back to top | Tablatures and chords for acoustic guitar and electric guitar, ukulele, drums are parodies/interpretations of the original songs. You may use it for private study, scholarship, research or language learning purposes only