Home » I » Imagine Dragons »

Imagine Dragons - On The Top Of The World Tabs

Artists:  A B C D E F G H I J K L M N O P Q R S T U V W X Y Z # 

On The Top Of The World Tabs

(ver. 3) Click to play this song!
Imagine Dragons
Tuning: standart E

e|--8---5---3h5p3--------|
B|----8---8-------3-5----|
G|--------------------5--| 3x 
D|-----------------------|
A|-----------------------|
E|-----------------------|

e|-----------------------|
B|--5-----6-5------------|
G|----7-5-----5----------| 1x
D|-----------------------|
A|-----------------------|
E|-----------------------|
            
Submit corrections

↑ Back to top | Tablatures and chords for acoustic guitar and electric guitar, ukulele, drums are parodies/interpretations of the original songs. You may use it for private study, scholarship, research or language learning purposes only