Home » I » Imagine Dragons »

Imagine Dragons - I Was Me Tabs

Artists:  A B C D E F G H I J K L M N O P Q R S T U V W X Y Z # 

I Was Me Tabs

(ver. 2) Click to play this song!
Imagine Dragons
[Intro/Verses]        
C#|------------------------------------------------------|
G#|-----------5---------5--------------------------------|
E |-------0h2-------0h2------------4---------4-----------|
B |------------------------------------------------------|
F#|-----3---------3------------0h2-------0h2-------------|
C#|--------------------------0---------0-----------------|

[Pre-Chorus]
C#|------------------------------------------------------|
G#|------------------------------------------------------|
E |--------0h2----0h2-----4------------------------------|
B |-------3------3-----0h2-------4-----------------------|
F#|------3------3-------------0h2------------------------|
C#|-----1------1------3------3---------------------------|

[Chorus]
C-G/B-C/E-F [x4]

C:      G/B:
C#|-0-| C#|-0-|
G#|-5-| G#|-3-|
E |-0-| E |-4-|
B |-5-| B |-5-|
F#|-3-| F#|-2-|
C#|-x-| C#|-x-|

C/E:    F:
C#|-0-| C#|-1-|
G#|-8-| G#|-1-|
E |-9-| E |-2-|
B |-10| B |-3-|
F#|-7-| F#|-3-|
C#|-x-| C#|-1-|

G:
C#|-3-|
G#|-3-|
E |-4-|
B |-5-|
F#|-5-|
C#|-3-|

[Bridge]
G-C/E [x2] F

[Chorus]
C-G/B-C/E-F [x4]            
Submit corrections

↑ Back to top | Tablatures and chords for acoustic guitar and electric guitar, ukulele, drums are parodies/interpretations of the original songs. You may use it for private study, scholarship, research or language learning purposes only