Home » I » Imagine Dragons »

Imagine Dragons - Its Time Bass

Artists:  A B C D E F G H I J K L M N O P Q R S T U V W X Y Z # 

Its Time Bass

(ver. 2) Click to play this song!
Imagine Dragons
Verse 1


G|-----7---------------7-----------------------------------------------|
D|---------------------------------------------------------------------|
A|-5-----5---------5-----5-------------4---------------4---------------|
E|---------------------------------5-----5---------5-----5-------------|

G|---------------------------------------------------------------------|
D|-------------------------------------5---------------5---------------|
A|-----9---------------9-----------------------------------------------|
E|-7-----7---------7-----7---------3-----3---------3-----3---3-3-5-----|

Chorus 1

G|---------------------------------------------------------------------|
D|---------------------------------------------------------------------|
A|-5-5-5-5-5-5-5-5-5-5-5-5-5-5-5-5-2-2-2-2-2-2-2-2-2-2-2-2-2-2-2-2-----|
E|---------------------------------------------------------------------|

G|---------------------------------------------------------------------|
D|---------------------------------------------------------------------|
A|---------------------------------------------------------------------|
E|-0-0-0-0-0-0-0-0-0-0-0-0-0-0-0-2-3-3-3-3-3-3-3-3-3-3-3-3-3-3-3-5-----|

After-Chorus

G|-----7---------------7-----------------------------------------------|
D|---------------------------------------------------------------------|
A|-5-----5---------5-----5-------------4---------------4---------------|
E|---------------------------------5-----5---------5-----5-------------|

G|---------------------------------------------------------------------|
D|-------------------------------------5---------------5---------------|
A|-----9---------------9-----------------------------------------------|
E|-7-----7---------7-----7---------3-----3---------3-----3-----3-5-----|

Verse 2

G|-----7---------------7-----------------------------------------------|
D|---------------------------------------------------------------------|
A|-5-----5---------5-----5-------------4---------------4---------------|
E|---------------------------------5-----5---------5-----5---0-5-6-----|

G|---------------------------------------------------------------------|
D|-------------------------------------5---------------5---------------|
A|-----9---------------9-----------------------------------------5-----|
E|-7-7---7---------7-----7---------3-----3---------3-----3---5-7-------|

G|-----7---------------7-----------------------------------------------|
D|-----------7---------------7-7-----------------------------7-7-7-----|
A|-5-5---5---------5-5---5-------------4-----7---------4---------------|
E|---------------------------------5-5---5---------5-5---5-------------|

G|---------------------------------------------------------------------|
D|-----------9-------------------------5---------------5---------------|
A|-----9---------------9-----9-9-------------5-------------------------|
E|-7-7---7---------7-7---7---------3-3---3---------3-3---3---3-3-5-----|

Chorus 2
                                                                                         
                                                          __
G|---------------------------------------------------------------------|
D|---------------------------------------------------------------------|
A|-5-5-5-5-5-5-5-5-5-5-5-5-5-5-5-5-2-2-2-2-2-2-2-2-2-2-2-2-2-2-2-2-----|
E|---------------------------------------------------------------------|
                                                                           x2
G|---------------------------------------------------------------------|
D|---------------------------------------------------------------------|
A|---------------------------------------------------------------------|
E|-0-0-0-0-0-0-0-0-0-0-0-0-0-0-0-2-3-3-3-3-3-3-3-3-3-3-3-3-3-3-3-5-----|

Bridge

G|---------------------------------------------------------------------|
D|---------------------------------------------------------------------|
A|---------------------------------------------------------------------|
E|-7-7-7-7-7-7-7-7-5h7-7-7-7-7-7-7-7-5-5-5-5-5-5---5-5-5-5-5-5-5-5-5---|

G|---------------------------------------------------------------------|
D|---------------------------------------------------------------------|
A|---------------------------------------------------------------------|
E|-3-3-3-3-3-3---3-0-0-0-0-0-0---0-3-3-3-3-3-3---3-5-5-5-5-5-5-5-5-----|

G|---------------------------------------------------------------------|
D|---------------------------------------------------------------------|
A|---------------------------------------------------------------------|
E|-/10-----------------------------------------------------------------|

Chorus 3

   Bass comes in at 3:11

G|---------------------------------------------------------------------|
D|---------------------------------------------------------------------|
A|---------------------------------------------------------------------|
E|-0-0-0-0-0-0-0-0-0-0-0-0-0-0-0-2-3-3-3-3-3-3-3-3-3-3-3-3-3-3-3-5-----|

G|---------------------------------------------------------------------|
D|---------------------------------------------------------------------|
A|-2-2-2-2-2-2-2-2-2-2-2-2-2-2-2-2-------------------------------------|
E|---------------------------------5-5-5-5-5-5-5-5-5-5-5-5-5-5-5-5-----|

G|---------------------------------------------------------------------|
D|---------------------------------------------------------------------|
A|---------------------------------------------------------------------|
E|-3-3-3-3-3-3-3-3-0-0-0-0-0-0-0-0-3-3-3-3-3-3-3-3-5-5-5-5-5-5-5-5-----|

Outro

G|-----7---------------7---------------7---------------7---------------|
D|-----------7-7-------------7-7-------------7-7-------------7-7-------|
A|-5-----5---------5-----5---------5-----5---------5-----5-------------|
E|---------------------------------------------------------------------|


Verse 1 Alternate Version

G|---------------------------------------------------------------------|
D|-12-14-16-14p12-16-14p12-16-14-12-14-16-14p12-16-14p12-16-14---------|
A|---------------------------------------------------------------------| x3
E|---------------------------------------------------------------------|

G|-------------------------------------------------------14------------|
D|-12-14-16-14p12-16-14p12-16-14-12-14-16-14p12-16-14p12----16---------|
A|---------------------------------------------------------------------|
E|---------------------------------------------------------------------|            
Submit corrections

↑ Back to top | Tablatures and chords for acoustic guitar and electric guitar, ukulele, drums are parodies/interpretations of the original songs. You may use it for private study, scholarship, research or language learning purposes only