Home » I » Imagine Dragons »

Imagine Dragons - Believer Tabs

Artists:  A B C D E F G H I J K L M N O P Q R S T U V W X Y Z # 

Believer Tabs

(ver. 2) Click to play this song!
Imagine Dragons
[VERSE]
0.07 - 0.53
"First things first Imma say all the words..."
e|-----------------|-----------------|-----------------|-----------------|
B|---1---1---1---1-|---1---1---1---1-|---1---1---1---1-|---0---0---0---0-|
G|-2---2---2---2---|-2---2---2---2---|-----------------|-1---1---1---1---| x6
D|-----------------|-----------------|-3---3---3---3---|-----------------|
A|-----------------|-----------------|-----------------|-----------------|
E|-----------------|-----------------|-----------------|-----------------|
   .....................................................................


[CHORUS]
0.54 - 1.23
"Pain..."
e|-0--0--0-0--0--0-|-0--0--0-0--0--0-|-1--1--1-1--1--1-|-0--0--0-0--0--0-|
B|-1--1--1-1--1--1-|-1--1--1-1--1--1-|-1--1--1-1--1--1-|-0--0--0-0--0--0-|
G|-2--2--2-2--2--2-|-2--2--2-2--2--2-|-2--2--2-2--2--2-|-1--1--1-1--1--1-| x4
D|-2--2--2-2--2--2-|-2--2--2-2--2--2-|-3--3--3-3--3--3-|-2--2--2-2--2--2-|
A|-0--0--0-0--0--0-|-0--0--0-0--0--0-|-3--3--3-3--3--3-|-2--2--2-2--2--2-|
E|-----------------|-----------------|-1--1--1-1--1--1-|-0--0--0-0--0--0-|
   D  D  U D  D  U   D  D  U D  D  U   D  D  U D  D  U   D  D  U D  D  U 


[VERSE]
1.24 - 1.55
"Third things third..."
e|-----------------|-----------------|-----------------|-----------------|
B|---1---1---1---1-|---1---1---1---1-|---1---1---1---1-|---0---0---0---0-|
G|-2---2---2---2---|-2---2---2---2---|-----------------|-1---1---1---1---| x6
D|-----------------|-----------------|-3---3---3---3---|-----------------|
A|-----------------|-----------------|-----------------|-----------------|
E|-----------------|-----------------|-----------------|-----------------|
   .....................................................................


[CHORUS]
1.56 - 2.25
"Pain! You made me a beleiver..."
e|-0--0--0-0--0--0-|-0--0--0-0--0--0-|-1--1--1-1--1--1-|-0--0--0-0--0--0-|
B|-1--1--1-1--1--1-|-1--1--1-1--1--1-|-1--1--1-1--1--1-|-0--0--0-0--0--0-|
G|-2--2--2-2--2--2-|-2--2--2-2--2--2-|-2--2--2-2--2--2-|-1--1--1-1--1--1-| x4
D|-2--2--2-2--2--2-|-2--2--2-2--2--2-|-3--3--3-3--3--3-|-2--2--2-2--2--2-|
A|-0--0--0-0--0--0-|-0--0--0-0--0--0-|-3--3--3-3--3--3-|-2--2--2-2--2--2-|
E|-----------------|-----------------|-1--1--1-1--1--1-|-0--0--0-0--0--0-|
   D  D  U D  D  U   D  D  U D  D  U   D  D  U D  D  U   D  D  U D  D  U 


[VERSE]
2.26 - 2.50
"Last thing's last..."
e|-----------------|-----------------|-----------------|-----------------|
B|---1---1---1---1-|---1---1---1---1-|---1---1---1---1-|---0---0---0---0-|
G|-2---2---2---2---|-2---2---2---2---|-----------------|-1---1---1---1---| x3
D|-----------------|-----------------|-3---3---3---3---|-----------------|
A|-----------------|-----------------|-----------------|-----------------|
E|-----------------|-----------------|-----------------|-----------------|
   .....................................................................


[CHORUS]
2.51 - To End
"Pain! You made me a beleiver..."
e|-0--0--0-0--0--0-|-0--0--0-0--0--0-|-1--1--1-1--1--1-|-0--0--0-0--0--0-|
B|-1--1--1-1--1--1-|-1--1--1-1--1--1-|-1--1--1-1--1--1-|-0--0--0-0--0--0-|
G|-2--2--2-2--2--2-|-2--2--2-2--2--2-|-2--2--2-2--2--2-|-1--1--1-1--1--1-| x4
D|-2--2--2-2--2--2-|-2--2--2-2--2--2-|-3--3--3-3--3--3-|-2--2--2-2--2--2-|
A|-0--0--0-0--0--0-|-0--0--0-0--0--0-|-3--3--3-3--3--3-|-2--2--2-2--2--2-|
E|-----------------|-----------------|-1--1--1-1--1--1-|-0--0--0-0--0--0-|
   D  D  U D  D  U   D  D  U D  D  U   D  D  U D  D  U   D  D  U D  D  U             
Submit corrections

↑ Back to top | Tablatures and chords for acoustic guitar and electric guitar, ukulele, drums are parodies/interpretations of the original songs. You may use it for private study, scholarship, research or language learning purposes only