» » »

Hozier - From Eden Chords

Artists:  A B C D E F G H I J K L M N O P Q R S T U V W X Y Z # 

From Eden Chords

(ver. 2) Click to play this song!
Hozier
 Rating:
3.9/5 (25 votes)

 From Eden  lessons Tabs too difficult? Try these video lessons and learn fast
 
                [Intro]
e|------8-----------------------------8--------------------------------------|
B|---------6-----------8--6--------------6-----------8--6--------------------|
G|9--9--------5--9--9--------5--9--9--------5--9--9--------5-----------------|
D|---------------------------------------------------------------------------|
A|---------5--------------5--------------5--------------5--------------------|
E|8--8--8-----5--8--8--8-----5--8--8--8-----5--8--8--8-----5-----------------|

[Intro/ Riff 1]
e|-8--8--5--5--|
B|-8--8--6--5--|
G|-9--9--7--5--|
D|-10----7--7--|
A|-10----5--7--|
E|-8-----5--5--|

C, Dm,Am (x4)


[Verse 1](Riff 1, Am7, Em, Gm) 
C Dm Am  
Babe,
C  Dm      Am        C         Dm   Am  C   Dm Am
   there's something tragic about you
Dm        Am  Am7     Em  G    
something so magic about you
Am7  Em  Gm        C   Dm  Am   C Dm Am
     don't you agree

[Verse 2] (Riff 1, Am7, Em, Gm)
C Dm Am
Babe,
C  Dm      Am        C         Dm   Am  C   Dm Am
   there's something lonesome about you
Dm        Am  Am7     Em  G       
something so wholesome about you
Am7  Em  G         C   Dm  Am   C Dm Am
     Get closer to me

[Bridge 1]
Am             G                Em   F   
no tight side, no rolling eyes, no irony
Dm              G                 F
no 'who cares', no vacant stares, no time for me

[Chorus] 
C      C    Dm Am     Am   C  G      G     Am F
Honey you're familiar like my mirror years ago
F G C      C  Dm Am     Am  C  G       G  Am   F        
Idealism sits in prison, chivalry fell on it's sword
F G C   C     Dm   Am         Am C  G      G Am F  
    Innocence died screaming, honey ask me I     should know
F G C         C    Dm   Am   Am   C  G      G    Am   F      F G
  I slithered here from eden just to sit outside your door

[Riff 2]
e|------8--------------------------------------------------------------------|
B|---------6-----------8--6-----------8--6-----------8--6--------------------|
G|9--9--------5--9--9--------5--9--9--------5--9--9--------5-----------------|
D|---------------------------------------------------------------------------|
A|---------5--------------5--------------5--------------5--------------------|
E|8--8--8-----5--8--8--8-----5--8--8--8-----5--8--8--8-----5-----------------|


[Verse 3] (Riff 1, Am7, Em, Gm)
C Dm Am
Babe,
C  Dm      Am        C              Dm Am  C 
   there's something wretched about this
Dm        Am  Am7     Em  G      
something so precious about this
Am7  Em    G    C   Dm  Am   C Dm Am
     where to begin

[Verse 4](Riff 1, Am7, Em, Gm)
C Dm Am
Babe,
C  Dm      Am        C              Dm Am  C 
   there's something broken about this
Dm    Am       Am7  Em  G      
but I might be open about this
Am7  Em  G     C   Dm  Am   C Dm Am
     oh what a sin

[Bridge 2]
Am             G           Em   F 
To the strand a picnic plan for you and me
Dm              G                 F
a rope in hand for your other man to hang from a tree

[Chorus] 
C      C    Dm Am     Am   C  G      G     Am F
Honey you're familiar like my mirror years ago
F G C      C  Dm Am     Am  C  G       G  Am   F        
Idealism sits in prison, chivalry fell on it's sword
F G C   C     Dm   Am         Am C  G      G Am F  
    Innocence died screaming, honey ask me I     should know
F G C         C    Dm   Am   Am   C  G      G    Am   F      F G
  I slithered here from eden just to sit outside your door

[At 3:10 there is that kind of spanish part that I couldn't tab. Sorry...]

[Riff 3]
e|---------------------8-----------------------------------------------------|
B|------8--6-------------6------------8--6-----------8--6--------------------|
G|9--9--------5--9--9--------5--9--9--------5--9--9--------5-----------------|
D|---------------------------------------------------------------------------|
A|---------5-------------5---------------5--------------5--------------------|
E|8--8--8-----5--8--8--8-----5--8--8--8-----5--8--8--8-----5-----------------|

[Chorus] (Fret: Up,Down {15 for the 2 lines} until 'Innocence')
C      C    Dm Am     Am   C  G      G     Am F
Honey you're familiar like my mirror years ago
F G C      C  Dm Am     Am  C  G       G  Am   F        
Idealism sits in prison, chivalry fell on it's sword
F G C   C     Dm   Am         Am C  G      G Am F  
    Innocence died screaming, honey ask me I     should know
F G C         C    Dm   Am   Am   C  G      G    Am   F      F G
  I slithered here from eden just to sit outside your door

[Riff 3]
e|---------------------8-----------------------------------------------------|
B|------8--6-------------6------------8--6-----------8--6------8-------------|
G|9--9--------5--9--9--------5--9--9--------5--9--9--------5-----------------|
D|---------------------------------------------------------------------------|
A|---------5-------------5---------------5--------------5--------------------|
E|8--8--8-----5--8--8--8-----5--8--8--8-----5--8--8--8-----5---8-------------|            
Submit corrections


        From Eden  lessons Hard to play? Try these video lessons and learn fast From Eden  lessons
        
↑ Back to top | Tablatures and chords for acoustic guitar and electric guitar, ukulele, drums are parodies/interpretations of the original songs. You may use it for private study, scholarship, research or language learning purposes only