» » »

Hozier - Cherry Wine Tabs

Artists:  A B C D E F G H I J K L M N O P Q R S T U V W X Y Z # 

Cherry Wine Tabs

(ver. 1) Click to play this song!
Hozier
 Rating:
4/5 (23 votes)

 Cherry Wine  lessons Tabs too difficult? Try these video lessons and learn fast
 
                LEGEND:
 _2  |   _4_   |   _3_   |   __3__   |
|¯|  |  |¯|¯|  |  |¯|¯|  |  |  |  |  |
1 e  |  1 e +  |  1 e a  |  1  +  a  |
                  ^triplet  ^triplet

If it is still unclear, listen to the piece to hear how fast the notes are played.

Tuning: Standard (EADGBe)
CAPO:6
                                                               _3_       _2  _4_
INTRO                                                         |¯|¯|     |¯| |¯|¯|
e|------------|------------|------0-----|0---3---5---|-------------|-------------|
B|------------|------------|----------3-|------------|-------------|-------------|
G|------------|------------|------------|------------|2h4-----4p2p0|0-------0h2p0|
D|------------|------------|------------|------------|0-------0----|0---0h2-0----|
A|------------|------------|------------|------------|-------------|-------------|
E|3---3---3---|3---3---3---|3---3---3---|3---3---3---|3---3---3----|3---3---3----|
                                     _3_       _2  _2   _2                                     _2
                                    |¯|¯|     |¯| |¯|  |¯|                                    |¯|
e|------0-----|0---3---5---|-------------|------------|------------|------------|------------|------------|
B|----------3-|------------|-------------|------------|0h1---0-----|------------|------0-----|------------|
G|0-----------|------------|2h4-----4p2p0|0-------0h2-|------------|------0-----|2-----------|------0-----|
D|0-----------|------------|0-------0----|0---0h2-----|------------|2-----------|------------|0h2-----0---|
A|------------|------------|-------------|------------|3---3---3---|3---3---3---|3---3---3---|3---3---3---|
E|3---3---3---|3---3---3---|3---3---3----|3---3---3---|------------|------------|------------|------------|
       __3__     __3__    _2   _4_
      |  |  |   |  |  |  |¯|  |¯|¯|
e|-------0-----|-------------|-------------|------------|
B|----------3--|0------------|-------------|------------|
G|0------------|---2--0------|0h2p0--0-----|0-----0-----|
D|0------------|---------0h2-|-------------|------0-----|
A|-------------|-------------|-------------|------------|
E|3---3----3---|3---3----3---|3----3---3---|3---3---3---|
                                                                                              _4_
VERSE 1                                                                                      |¯|¯|
e|------------|------------|------------|------------|------------|------------|------------|-------------|
B|3-----------|0-----3-----|----0---3---|----0---3---|------0-----|1-----1-----|0-----------|-------------|
G|------2-----|------------|2-----------|2-----------|0-----0-----|0-----0-----|0-----0-----|0h2p0--------|
D|------------|------------|------------|------------|2-----2-----|2-----2-----|0-----------|-------0-----|
A|------------|------------|------------|------------|------------(3)-(3)-(3)--|------------|-------------|
E|3---3---3---|3---3---3---|3---3---3---|3---3---3---|0---0---0---|3---3---3---|3---3---3---|3----3---3---|
..eyes  and    words are    so  ic--y    Oh  but she  burns   Like rum   on the fire
e|------------|------------|------------|------------|------------|------------|------------|------------|
B|3-----------|0-----3-----|----0---3---|----0---3---|------0--h1-|1-----1-----|0-----------|------------|
G|------2-----|------------|2-----------|2-----------|0-----0-----|0-----0-----|0-----0-----|0-----0-----|
D|------------|------------|------------|------------|2-----2-----|2-----2-----|0-----------|------------|
A|------------|------------|------------|------------|------------(3)-(3)-(3)--|------------|------------|
E|3---3---3---|3---3---3---|3---3---3---|3---3---3---|0---0---0---|3---3---3---|3---3---3---|3---3---3---|
  Hot   and    fast  and    angry   as   she can be   I walk    my days  on  a  wire
e|0-----------|0---0-------|0-----------|0---0-------|0-----------|-------------|
B|1-----------|1---0-------|1-----------|1---0-------|1---1-------|1----1-------|
G|0-----------|0---0-------|0-----------|0---0-------|0-----------|-------------|
D|2-----------|2---2-------|2-----------|2---2-------|2-------0---|---------0---|
A|3-----------|3---2---2---|3-----------|3---2---2---|3---3-------|-------------|
E|3-----------|3---0-------|3-----------|3---0-------|3-----------|0----2-------|
       It looks ugly,            but it's clean    oh ma--ma, dont fuss ov--er
                                     _3_                                                  _3_
CHORUS                              |¯|¯|                                                | | |
e|------0-----|0---3---5---|-------------|------------|------0-----|0---3---5---|-------------|------------|
B|0---------3-|------------|-------------|------------|----------3-|------------|-------------|------------|
G|------------|------------|2h4-----4p2p0|0-----0-----|0-----------|------------|2h4-----4p2p0|0-----0-----|
D|------------|------------|-------------|------0-----|0-----------|------------|-------------|------------|
A|------------|------------|-------------|------------|------------|------------|-------------|------------|
E|3---3---3---|3---3---3---|3---3---3----|3---3---3---|3---3---3---|3---3---3---|3---3---3----|3---3---3---|
  me.   way she...       ...hers....she...mine               Op--en hand...   ...fist...    ...fine
                                          _2               __3__     __3__    _2
                                         |¯|              |  |  |   |  |  |  |¯|
e|------------|------------|------------|------------|-------0-----|-------------|------------|------------|
B|1-----0-----|------------|------0-----|------------|----------3--|0------------|------------|------------|
G|------------|------0-----|2-----------|------0-----|0------------|---2--0------|------------|0-----0-----|
D|------------|2-----------|------------|0h2---------|0------------|---------0h2-|0-----0-----|0-----0-----|
A|3---3---3---|3---3---3---|3---3---3---|3---3---3---|-------------|-------------|------------|------------|
E|------------|------------|------------|------------|3---3----3---|3---3----3---|3---3---3---|3---3---3---|
..blood is     rare  and    sweet as     cherrywine                                           _4_
VERSE 2                                                                                      |¯|¯|
e|------------|------------|------------|------------|------------|------------|------------|-------------|
B|3-----------|0-----3-----|----0---3---|----0---3---|------0-----|1-----1-----|0-----------|-------------|
G|------2-----|------------|2-----------|2-----------|0-----0-----|0-----0-----|0-----0-----|0h2p0--0-----|
D|------------|------------|------------|------------|2-----2-----|2-----2-----|0-----------|-------0-----|
A|------------|------------|------------|------------|------------(3)-(3)-(3)--|------------|-------------|
E|3---3---3---|3---3---3---|3---3---3---|3---3---3---|0---0---0---|3---3---3---|3---3---3---|3----3---3---|
  Calls of     guil--ty     thrown..me   All while....stains   the sheets... ...other         _4_
                                                                                             |¯|¯|
e|------------|------------|------------|------------|------------|------------|------------|-------------|
B|3-----------|0-----3-----|----0---3---|----0---3---|------0-----|1-----1-----|0-----------|-------------|
G|------2-----|------------|2-----------|2-----------|0-----0-----|0-----0-----|0-----0-----|0h2p0--0-----|
D|------------|------------|------------|------------|2-----2-----|2-----2-----|0-----0-----|-------0-----|
A|------------|------------|------------|------------|------------(3)-(3)-(3)--|------------|-----2-------|
E|3---3---3---|3---3---3---|3---3---3---|3---3---3---|0---0---0---|3---3---3---|3---3---3---|3------------|
 Thrown at     me    so     powerf'ly    Just....she  throws...the arm   of her brother
e|0-----------|0---0-------|0-----------|0---0-------|0-----------|------------|
B|1-----------|1---0-------|1-----------|1---0-------|1---1-------|1---1-------|
G|0-----------|0---0-------|0-----------|0---0-------|0-----------|------------|
D|2-----------|2---2-------|2-----------|2---2-------|2-----------|--------0---|
A|3-----------|3---2---2---|3-----------|3---2--2----|3---3-------|------------|
E|3-----------|3---0-------|3-----------|3---0-------|3-----------|0---2-------|
        But I want it,            it's a crime...    not around   most of  the
                             _2      _3_                                          _2      _3_
CHORUS                      |¯|     |¯|¯|                                        |¯|     | | |
e|------0-----|0---3---5---|-------------|------------|------0-----|0---3---5---|-------------|------------|
B|0---------3-|------------|-------------|------------|----------3-|------------|-------------|------------|
G|------------|------------|2h4-----4p2p0|0-----0-----|0-----------|------------|2h4-----4p2p0|0-----0-----|
D|------------|------------|-------------|0-----0-----|0-----------|------------|-------------|0-----0-----|
A|------------|------------|-------------|------------|------------|------------|-------------|------------|
E|3---3---3---|3---3---3---|3---3---3----|3---3---3---|3---3---3---|3---3---3---|3---3---3----|3---3---3---|
  time  Way she....me  I'm  hers...    ...mine               Op--en hand...   ...fist...      ...fine
                                          _3_               __3__     __3__    _2   _4_
                                         |¯|¯|             |  |  |   |  |  |  |¯|  |¯|¯|
e|------------|------------|------------|-------------|-------0-----|-------------|-------------|-----------|
B|1-----0-----|------------|------0-----|-------------|----------3--|0------------|-------------|-----------|
G|------------|------0-----|2-----------|4p2p0--0-----|0------------|---2--0------|0h2p0--------|0-----0----|
D|------------|2-----------|------------|-------------|0------------|---------0h2-|0------0-----|0-----0----|
A|3---3---3---|3---3---3---|3---3---3---|3----3---3---|-------------|-------------|-------------|-----------|
E|------------|------------|------------|-------------|3---3----3---|3---3----3---|3----3---3---|3---3---3--|
..blood is     rare  and    sweet as     cherry wine
                             _2           _2  _2                    _4_  _4_  _4_   _2           _4_
BRIDGE                      |¯|          |¯| |¯|                   |¯|¯||¯|¯||¯|¯| |¯|          |¯|¯|
e|--------0---|--------0---|--------0---|--------------|-----0----|---------------|------------|------------|
B|0h1-------1-|1/3-------3-|3\1-------1-|1/3-3\1p0---0-|----------|1h3p1----------|------------|------------|
G|------0-----|------0-----|------0-----|--------------|----------|-----0h2p0-----|------------|0h2p0--0----|
D|----2-------|----4-------|----2-------|2/4-4\2p0-0---|----------|----------0h2p0|------0h2---|0------0----|
A|0-----------|0-----------|0-----------|--------------|----------|---------------|0h2---------|------------|
E|------------|------------|------------|--------------|3--3---3--|3----3----3----|3---3---3---|3----3---3--|
                             _2           _2  _2
                            |¯|          |¯| |¯|
e|--------0---|--------0---|--------0---|--------------|------------|------------|------------|-------|
B|0h1-------1-|1/3-------3-|3\1-------1-|1/3-3\1p0---0-|--------0---|0-------0---|0-----------|-------|
G|------0-----|------0-----|------0-----|--------------|------0---0-|------------|------0---0-|0------|
D|----2-------|----4-------|----2-------|2/4-4\2p0-0---|----2-------|----2-------|----0-------|-------|
A|0-----------|0-----------|0-----------|--------------|------------|------------|------------|-------|
E|------------|------------|------------|--------------|0-----------|0-------2---|3-------3---|3------|

VERSE 3
e|------------|------------|------------|------------|------------|------------|------------|------------|
B|3-----------|0-----3-----|----0---3---|----0---3---|------------|1-----------|0-----------|------------|
G|------2-----|------------|2-----------|2-----------|0-----------|0-----------|0-----------|------------|
D|------------|------------|------------|------------|2-----------|2-----------|0-----------|------------|
A|------------|------------|------------|------------|------------|------------|------------|------------|
E|------------|------------|------------|------------|0-----------|3-----------|3-----------|------------|
..fight and    fu----ry     is  fiery   ,oh, but she  loves   like sleep...freezing
e|------------|------------|------------|------------|------------|------------|------------|------------|
B|3-----------|0-----3-----|----0---3---|----0---3---|------0--h1-|1-----1-----|0-----------|------------|
G|------2-----|------------|2-----------|2-----------|0-----0-----|0-----0-----|0-----0-----|0-----0-----|
D|------------|------------|------------|------------|2-----2-----|2-----2-----|0-----0-----|0-----0-----|
A|------------|------------|------------|------------|------------(3)-(3)-(3)--|------------|----0-------|
E|3---3---3---|3---3---3---|3---3---3---|3---3---3---|0---0---0---|3---3---3---|3---3---3---|3---3-------|
  Sweet and    right and    merciful     I'm all  but washed... ...tide  of her breathing
e|0-----------|0---0-------|0-----------|0---0-------|0-----------|------------|
B|1-----------|1---0-------|1-----------|1---0-------|1---1-------|1---1-------|
G|0-----------|0---0-------|0-----------|0---0-------|0-----------|------------|
D|2-----------|2---2-------|2-----------|2---2-------|2-------0---|--------0---|
A|3-----------|3---2---2---|3-----------|3---2--2----|3---3-------|------------|
E|3-----------|3---0-------|3-----------|3---0-------|3-----------|0---2-------|
      And it's worth...        ...it's divine         I   have.....someof    the
                             _2      _3_                                          _2      _3_
CHORUS                      |¯|     |¯|¯|                                        |¯|     |¯|¯|
e|------0-----|0---3---5---|-------------|------------|------0-----|0---3---5---|-------------|------------|
B|0---------3-|------------|-------------|------------|----------3-|------------|-------------|------------|
G|------------|------------|2h4-----4p2p0|0-----0-----|0-----------|------------|2h4-----4p2p0|0-----0-----|
D|------------|------------|-------------|0-----0-----|0-----------|------------|-------------|0-----0-----|
A|------------|------------|-------------|------------|------------|------------|-------------|------------|
E|3---3---3---|3---3---3---|3---3---3----|3---3---3---|3---3---3---|3---3---3---|3---3---3----|3---3---3---|
  time      ...she tells....hers....she...mine               Op--en hand...   ...fist...    ...fine
                                          _3_               __3__     __3__         _4_          _4_
                                         |¯|¯|             |  |  |   |  |  |       |¯|¯|        |¯|¯|
e|------------|------------|------------|-------------|-------0-----|-------------|------------|------------|
B|1-----0-----|------------|------0-----|-------------|----------3--|0------------|------------|------------|
G|------------|------0-----|2-----------|4p2p0--0-----|0------------|---2--0------|0h2p0-------|0h2p0--0----|
D|------------|2-----------|------------|-------------|0------------|---------0h2-|0------0h2--|0------0----|
A|3---3---3---|3---3---3---|3---3---3---|3----3---3---|-------------|-------------|------------|------------|
E|------------|------------|------------|-------------|3---3----3---|3---3----3---|3----3---3--|3----3---3--|
..blood is     rare  and    sweet as     cherry wine
                                     _3_       _2  _4_                                     _3_      _2 _4_
OUTRO                               |¯|¯|     |¯| |¯|¯|                                   | | |    |¯||¯|¯|
e|------0-----|0---3---5---|-------------|-------------|------0-----|0---3---5---|-------------|------------|
B|----------3-|------------|-------------|-------------|----------3-|------------|-------------|----------1-|
G|------------|------------|2h4-----4p2p0|0-------0h2p0|0-----------|------------|2h4-----4p2p0|0-----0h1---|
D|------------|------------|-------------|0---0h2------|0-----------|------------|-------------|0--0h20-----|
A|------------|------------|-------------|-------------|------------|------------|-------------|------0h2-3-|
E|3---3---3---|3---3---3---|3---3---3----|3---3---3----|3---3---3---|3---3---3---|3---3---3----|3-----------|
                                          _3_  _2  _4_       __3__
                                         | | ||¯| |¯|¯|     |  |  |
e|------------|------------|------------|--------------|-------0-----|------------|------------|
B|1-----0-----|------------|------0-----|--------------|----------3--|------------|------------|
G|------------|------0-----|2-----------|4p2p0---------|-------------|0-2-0-----0-|0-----------|
D|------------|2-----------|0-----------|-----0h2-0h2p0|0------------|------0h2---|0-----------|
A|3---3---3---|3---3---3---|3---3---3---|3----3---3----|-------------|------3-----|------------|
E|------------|------------|------------|--------------|3------------|------------|3-----------|            
Submit corrections


        Cherry Wine  lessons Hard to play? Try these video lessons and learn fast Cherry Wine  lessons
        
↑ Back to top | Tablatures and chords for acoustic guitar and electric guitar, ukulele, drums are parodies/interpretations of the original songs. You may use it for private study, scholarship, research or language learning purposes only