» » »

Hozier - To Be Alone Tabs

Artists:  A B C D E F G H I J K L M N O P Q R S T U V W X Y Z # 

To Be Alone Tabs

(ver. 1) Click to play this song!
Hozier
 Rating:
4.3/5 (6 votes)

 To Be Alone  lessons Tabs too difficult? Try these video lessons and learn fast
 
                Acoustic Version

Intro: (tabs relative to the capo)

e|-------------0--3b-0----------------------------------------------------------|
B|----------3b---------3b-0---------------3-------------------------------------|
G|--------------------------2---------2/4---2--------2/4\2p0----0-2-0---0-2-0---|
D|-----------------------------------------------------------2--------2------2--|
A|------------------------------------------------------------------------------|
E|--0-0-0-0-0-0-0-0-0-0-0-0-0-0-0-0-0-0-0-0-0-0-0-0-0-0-0-0-0-0-0-0-0-0-0-0-0-0-|

e|-----0--3b-0-----------------------------------------------------------|
B|--3b---------3b-0----------------3-------------------------------------|
G|-------------------2---------2/4---2-------2/4\2p0----0-2-0---0-2-0----|
D|---------------------------------------------------2--------2-------2--|
A|-----------------------------------------------------------------------|
E|--0-0-0-0-0-0-0-0-0-0-0-0-0-0-0-0-0-0-0-0-0-0-0-0-0-0-0-0-0-0-0-0-0-0--|

e|-----------------------------------------|
B|-----------------------------------------|
G|--0-2-0---0h2p0h2p0h2p0------------------| 
D|--------2---------------0h2p0h2p0h2p0----|
A|-----------------------------------------|
E|--0-0-0-0-0-0-0-0-0-0-0-0-0-0-0-0-0-0-0--|            
Submit corrections


        To Be Alone  lessons Hard to play? Try these video lessons and learn fast To Be Alone  lessons
        
↑ Back to top | Tablatures and chords for acoustic guitar and electric guitar, ukulele, drums are parodies/interpretations of the original songs. You may use it for private study, scholarship, research or language learning purposes only