» » »

Hozier - From Eden Tabs

Artists:  A B C D E F G H I J K L M N O P Q R S T U V W X Y Z # 

From Eden Tabs

(ver. 2) Click to play this song!
Hozier
 Rating:
4/5 (4 votes)

 From Eden  lessons Tabs too difficult? Try these video lessons and learn fast
 
                Intro:

|-------------|
|-------------|
|----9---7----|
|-10-------7--|
|-------------|
|-8--8---5-5--|

Verse:

|-------------|  x4  |-----------|  x2
|-------------|      |-----------|
|----9---7----|      |---------4-|
|-10-------7--|      |-7-7---2-5-|
|-------------|      |-7-7---2-5-|
|-8--8---5-5--|      |-5-5-----3-|

Pre-Chorus:

|-----------------------------------------|
|-----------------------------------------|
|-------4-4--------2-3----------4-4---2-2-|
|-7-7---5-5----2-2-3-3----7-7---5-5---3-3-|
|-7-7---5-5----2-2-3-3----7-7---5-5---3-3-|
|-5-5---3-3--------1-1----5-5---3-3---1-1-|

Chorus:

|--------------------------------------------|
|--------------------------------------------|
|--9--9---7----------9---4--4-----4-2-2--2-4-|
|-10-10---7-7-7-7---10-7-5--5---7-5-3-3--3-5-|
|-10-10-----7-7-7---10-7-5--5---7-5-3-3--3-5-|
|--8--8---5-5-5-5----8-5-3--3---5-3-1-1--1-3-|

Filler between 2nd and Last Chorus:

|------------------8--------|
|---8---6p5------------6p5--|
|-9--------------9----------|
|----------7--------------7-|
|---------------------------|
|-8--------------8----------|            
Submit corrections


        From Eden  lessons Hard to play? Try these video lessons and learn fast From Eden  lessons
        
↑ Back to top | Tablatures and chords for acoustic guitar and electric guitar, ukulele, drums are parodies/interpretations of the original songs. You may use it for private study, scholarship, research or language learning purposes only