» » »

Hozier - Take Me To Church Ukulele

Artists:  A B C D E F G H I J K L M N O P Q R S T U V W X Y Z # 

Take Me To Church Ukulele

(ver. 1) Click to play this song!
Hozier
 Rating:
1.3/5 (3 votes)

 Take Me To Church  lessons Tabs too difficult? Try these video lessons and learn fast
 
                
A|-2---2---0-----------0---|-2---------------0---|-2---2---2-5p2--------0---|-2----------------0---|
E|-3-----------3---3---0-0-|-3---3-------3---0-3-|-3---------------5p3--0-3-|-3---3------------0-3-|
C|-4------------4------0---|-4-------2h4-----0---|-2--------------------0---|-4-------4p2--4---0---|
G|-0-------------------2---|-0---------------2---|-0--------------------2---|-0----------------2---|
   Em                  Am    Em              Am    G                    Am    Em               Am

A|-2---2---0-----------0---|-2---------------0---|-2---2---2-5p2--------0---|-2----------------0---|
E|-3-----------3---3---0-0-|-3---3-------3---0-3-|-3---------------5p3--0-3-|-3---3------------0-3-|
C|-4------------4------0---|-4-------2h4-----0---|-2--------------------0---|-4-------4p2--4---0---|
G|-0-------------------2---|-0---------------2---|-0--------------------2---|-0----------------2---|
   Em                  Am    Em              Am    G                    Am    Em               Am

A|-0---0---2p0-------------|-0-------0-0---------|
E|-2-------------3---------|-3---3---------3-----|
C|-2-----------------------|-4-------------------|
G|-2-----------------------|-5-------------------|
   D                         C

A|-2---2---0-----------0---|-2---------------0---|-2---2---2-5p2--------0---|-2----------------0---|
E|-3-----------3---3---0-0-|-3---3-------3---0-3-|-3---------------5p3--0-3-|-3---3------------0-3-|
C|-4------------4------0---|-4-------2h4-----0---|-2--------------------0---|-4-------4p2--4---0---|
G|-0-------------------2---|-0---------------2---|-0--------------------2---|-0----------------2---|
   Em                  Am    Em              Am    G                    Am    Em               Am

A|-0---0---2p0-------------|-0-------0-0-------0-|----0h2p0-----------------|-----------2----------|
E|-2-------------3---------|-3---3---------3---3-|-3---------3-3-3-3-3------|-------3---3----------|
C|-2-----------------------|-4-----------------4-|----------4-4-4-4-4-------|-2s4-------2----------|
G|-2-----------------------|-5-----------------5-|--------------------------|-----------0----------|
   D                         C                 C                                        G

A|-3-5-3---2---------------|
E|-0-------3---------------|
C|-0-------2---------------|
G|-0-------0---------------|
   C       G            
Submit corrections


        Take Me To Church  lessons Hard to play? Try these video lessons and learn fast Take Me To Church  lessons
        
↑ Back to top | Tablatures and chords for acoustic guitar and electric guitar, ukulele, drums are parodies/interpretations of the original songs. You may use it for private study, scholarship, research or language learning purposes only