» » »

Hozier - From Eden Tabs

Artists:  A B C D E F G H I J K L M N O P Q R S T U V W X Y Z # 

From Eden Tabs

(ver. 4) Click to play this song!
Hozier
 Rating:
4.3/5 (6 votes)

 From Eden lessons Tabs too difficult? Try these video lessons and learn fast
 
                [Intro Riff]
e|-----8----------------------------|
B|-----8--6s~5---------8----6s~5----|
G|--9--9--7s~5--5s~~9--9----7s~5----| x2
D|---------------------10-----------|
A|----------------------------------|
E|--8-----------5s~~8---------------|

[Verse]
e|-----8---------------------|    |---------------------------|
B|-----8--7--------8---7-----|    |---------------------------|
G|--9--9--6-5---9--9---6-5---|    |-----5------------5--------|  
D|----------7------10----7---| x2 |-----5--7s~5------5--7s~5--|  
A|---------------------------|    |-----7--7--7------7--7s~5--|
E|--8-----------8------------|    |--5------------5-----------|

e|-----8----------------------------|
B|-----8--6s~5---------8----6s~5----|
G|--9--9--7s~5--5s~~9--9----7s~5----| x2
D|---------------------10-----------|
A|----------------------------------|
E|--8-----------5s~~8---------------|

[Bridge]
e|-------------------------------------------------|
B|-------------------------------------------------|
G|--------------------------7-7--------------------|
D|--7-7---5-5---2-2-3-3-----7-7----5-5----3-3------|
A|--7-7---5-5---2-2-3-3-----5-5----5-5----3-3------|
E|--5-5---3-3---0-0-1-1------------3-3----1-1------|

[Chorus]
                                                                              (alternate ending)
e|--------------------------------------------------------------|           |--------------------|
B|-----8------6-------------------------------------------------|           |--------------------|
G|-----9------7----5------5-5h7p-5-------4-----4-----4-----4----|           |----1--1----1--1----|
D|-----10---7------7------7-------7------5-----5-----3-----3----| [repeat]  |----1--1----3--3----| x2
A|---------------7--------7--------------5-----5-----3-----3----|           |----2--2----3--3----|
E|--8-------------------5---5----------3-----3-----1-----1------|           |--0---0---1---1-----|

[Verse]
e|-----8---------------------|    |---------------------------|
B|-----8--7--------8---7-----|    |---------------------------|
G|--9--9--6-5---9--9---6-5---|    |-----5------------5--------|  
D|----------7------10----7---| x2 |-----5--7s~5------5--7s~5--|  
A|---------------------------|    |-----7--7--7------7--7s~5--|
E|--8-----------8------------|    |--5------------5-----------|

e|-----8----------------------------|
B|-----8--6s~5---------8----6s~5----|
G|--9--9--7s~5--5s~~9--9----7s~5----| x2
D|---------------------10-----------|
A|----------------------------------|
E|--8-----------5s~~8---------------|

[Bridge]
e|-------------------------------------------------|
B|-------------------------------------------------|
G|--------------------------7-7--------------------|
D|--7-7---5-5---2-2-3-3-----7-7----5-5----3-3------|
A|--7-7---5-5---2-2-3-3-----5-5----5-5----3-3------|
E|--5-5---3-3---0-0-1-1------------3-3----1-1------|

[Chorus]
                                                                              (alternate ending)
e|--------------------------------------------------------------|           |--------------------|
B|-----8------6-------------------------------------------------|           |--------------------|
G|-----9------7----5------5-5h7p-5-------4-----4-----4-----4----|           |----1--1----1--1----|
D|-----10---7------7------7-------7------5-----5-----3-----3----| [repeat]  |----1--1----3--3----| x2
A|---------------7--------7--------------5-----5-----3-----3----|           |----2--2----3--3----|
E|--8-------------------5---5----------3-----3-----1-----1------|           |--0---0---1---1-----|

[Into Riff}

[Verse]
Babe, there's something tragcoc about you,
Something so magic about you,
Don't you agree?

Babe, there's something lonesome about you,
Something so wholseome about you,
Get closer to me.

[Bridge
No tight side, no rolling eyes, no irony.
No 'who cares,' no vacant stares, no times for me.

[Chours]
Honey, you're familiar, like my my mirror years ago,
Idealism sits prison, chivarly fell on it's sword,
Innocence died screaming, honey, ask me, should I know,
I slithered here from Eden just to sit outside your door.

[Verse]
Babe, there's something wretched about this,
Something so precious about this,
Oh, what a sin.

[Bridge]
To the strand, a picnic plan for you and me,
A rope in hand for your other man to hang from a tree.

[Chours]
Honey, you're familiar, like my my mirror years ago,
Idealism sits prison, chivarly fell on it's sword,
Innocence died screaming, honey, ask me, should I know,
I slithered here from Eden just to sit outside your door.

Honey, you're familiar, like my my mirror years ago,
Idealism sits prison, chivarly fell on it's sword,
Innocence died screaming, honey, ask me, should I know,
I slithered here from Eden just to sit outside your door.
            
Submit corrections


        From Eden lessons Hard to play? Try these video lessons and learn fast From Eden lessons
        
↑ Back to top | Tablatures and chords for acoustic guitar and electric guitar, ukulele, drums are parodies/interpretations of the original songs. You may use it for private study, scholarship, research or language learning purposes only