» » »

Hozier - Take Me To Church Bass

Artists:  A B C D E F G H I J K L M N O P Q R S T U V W X Y Z # 

Take Me To Church Bass

(ver. 1) Click to play this song!
Hozier
 Rating:
3.4/5 (35 votes)

 Take Me To Church  lessons Tabs too difficult? Try these video lessons and learn fast
 
                Tuning: Standard
Verse 1
G|-----------------------------------------------------------------------------|
D|----------------------------------------------------------------0------------|
A|------0---------0-------0---------0-------0------0-----0------0----3---------|
E|-0-------0---------3-------0--------0-------0------3-----0-------------------|

G|-------------------------------------------------------------------------------|
D|------------------------------0------------------------------------------------|
A|------0-------0------0------0-----3----3---------------------------------------|
E|-0------0-------3------3-------------------------------------------3-2-2-1-----|

Chorus X2
G|---------------------------------------------------------------------------|
D|---------------------------------------------------------------------------|
A|----------2-------------0--------------------------------------------------|
E|-0---------------3------------0--------5-3-3-2-----------------------------|

Verse 2
G|---------------------------------------------------------------------------|
D|-----------------------------0---------------------------------------------|
A|------0------0------0------0-------3---------------------------------------|
E|-0------0------3------0-----------------3-2-2-1----------------------------|

Repeat Chorus

Bridge
G|-----------------------------------------------------------------------------------|
D|-----------------------------------------------------------------------------------|
A|-3------2---------3-------2---------3------2-------3-------2-------3------2--------|
E|----3-------0--------3--------0--------3------0-------3-------0------3------0------|

G|---------------------------------------------------------------------------------|
D|---------------------------------------------------------------------------------|
A|---------------------------------------------------------------------------------|
E|--3-2-2-1------------------------------------------------------------------------|
            
Submit corrections


        Take Me To Church  lessons Hard to play? Try these video lessons and learn fast Take Me To Church  lessons
        
↑ Back to top | Tablatures and chords for acoustic guitar and electric guitar, ukulele, drums are parodies/interpretations of the original songs. You may use it for private study, scholarship, research or language learning purposes only