Home » F » Foals »

Foals - Mountain At My Gates Tabs

Artists:  A B C D E F G H I J K L M N O P Q R S T U V W X Y Z # 

Mountain At My Gates Tabs

(ver. 3) Click to play this song!
Foals
e|-------------------------------------------------------------------------------|
B|---13---13---13---13-15-13----------------------10-----------------------------|
G|-14---14---14---14------------10-12-10-12-10-12---12-10------------------------|
D|--------------------------------------------------------12--10-12-10-12-10-12--|
A|-------------------------------------------------------------------------------|
E|-------------------------------------------------------------------------------|

e|---------------------------------------------------------------------------|
B|-10------------------------------------------------------------------------|
G|---12-10-----------------10-10-10-10---------------------------------------|
D|--------12--10-12-10-12--------------12------------------------------------|
A|---------------------------------------------------------------------------|
E|---------------------------------------------------------------------------|
            
Submit corrections

↑ Back to top | Tablatures and chords for acoustic guitar and electric guitar, ukulele, drums are parodies/interpretations of the original songs. You may use it for private study, scholarship, research or language learning purposes only