Home » F » Foals »

Foals - Mountain At My Gates Bass

Artists:  A B C D E F G H I J K L M N O P Q R S T U V W X Y Z # 

Mountain At My Gates Bass

(ver. 2) Click to play this song!
Foals
Variation -1 
G-----------------------------------------------------
D---------------------------------------5-7-----------
A------------10h12-------10p9-------------------------
E--10-10------------8-8-----------6-6--------8-8-10--

Variation -2
G------------------------------------------------------
D------------------------------------------------------
A------------10h12-------10p9--------------------------
E--10-10------------8-8-----------6-6-6-6----3-3-3-3

Variation -3
G-----------------------------------------------5-5h7p5--
D----------------------------------------5-7------------5
A------------10h12-------10p9----------------------------
E--10-10------------8-8-----------6-6---------------------

Variation -4
G----------------------------------------5---------------
D--------------------------------------------7-5--------
A------------10h12-------10p9----------------------8----
E--10-10------------8-8-----------6-6---------------------

Chorus

G-------------------------------------------------------------------------------------------
D------------------------------------------------------------------------------------------
A-------------------3----5-5-5-5-5-5-5-5------3-3-3-3-3-3-3-3------------------------------
E-6-6-6-6-6-6-6-----------------------------------------------------------3-3-3-3-3-3-3-5-

Outro

G-------------------------------------------------------------------------
D-------------------------------------------------------------------------
A--------------------5-5-5-5-5-5-5-5---3-3-3-3-3-3-3-3--------------------
E-6-6-6-6-6-6-6-6-----------------------------------------3-3-3-3-3-3-3-3-

G------------------------------------------------------------------------------------
D------------------------------------------------------------------------------------
A---------------------5-5-5-5-5-5-5-5----3-3-3-3-3-3-3-3-----10-10-10-10-10-10-10-10-
E-6-6-6-6-6-6-6-6--------------------------------------------------------------------

Song Structure

Play the tab in the following order:

Intro and first verse
Var1 -> Var2 -> Var3 ->Var4

Guitar Lick before second verse
Var1->Var2

Second Verse
Var1 -> Var2 -> Var3 ->Var4

Chorus 
Play twice

Third Verse
Var1 -> Var2 -> Var3 ->Var4

Guitar Lick before second chorus
Var1->Var4

Chorus
Play twice

Break

Outro
Play and repeat until song finish

            
Submit corrections

↑ Back to top | Tablatures and chords for acoustic guitar and electric guitar, ukulele, drums are parodies/interpretations of the original songs. You may use it for private study, scholarship, research or language learning purposes only