» » »

Foals - Snake Oil Tabs

Artists:  A B C D E F G H I J K L M N O P Q R S T U V W X Y Z # 

Snake Oil Tabs

(ver. 1) Click to play this song!
Foals
 Rating:
3.5/5 (28 votes)
    Snake Oil  lessons Tabs too difficult? Try these video lessons and learn fast
                Tuning: Standard

Intro/Verse
e|---------------------------------------------------------------------------|
B|---------------------------------------------------------------------------|
G|---------------------------------------------------------------------------|
D|--------------------------2~-----------------------------------------------|
A|---------------------------------------------------------------------------|
E|-0-0-0-3b-0-0-3b-0-3b-0-3--------------------------------------------------|

Chorus
e|-----------------------------------------------------------|
B|-----------------------------------------------------------|
G|-----------------------------------------------------------|
D|-5--7--2---5-------5---12----12-14---------7h9-7-----------|
A|-5--7--2---5h7p5---5---10----10-12---------------10-7~-----|
E|-3--5--0---------7--------12-------12~---------------------|
            
Submit corrections

↑ Back to top | Tablatures and chords for acoustic guitar and electric guitar, ukulele, drums are parodies/interpretations of the original songs. You may use it for private study, scholarship, research or language learning purposes only