» » »

Foals - London Thunder Tabs

Artists:  A B C D E F G H I J K L M N O P Q R S T U V W X Y Z # 

London Thunder Tabs

(ver. 1) Click to play this song!
Foals
 Rating:
4/5 (20 votes)
    London Thunder  lessons Tabs too difficult? Try these video lessons and learn fast
                (0:38-0:41)             

e|---------------------|
B|-9p7-----------------|
G|-----8-8--6-6-6-8----|
D|---------------------|
A|---------------------|
E|---------------------|
                      
               1x          3x          1x          3x
Main Riff: (0:55-1:05) (1:35-2:05) (2:39-2:49) (3:10-3:30)

e|--------------------|-----------9-------|-----------------------------------|
B|11--11-11-11-9------|-11--11-11----11-9-|-11--11-11-11-9----9--9-9-9--------|
G|---------------11-8-|-------------------|----------------11----------11-----|
D|--------------------|-------------------|-------------------------------13--|
A|--------------------|-------------------|-----------------------------------|
E|--------------------|-------------------|-----------------------------------|

(1:17-1:25)

e|------------------------------------|
B|-9p7-------------4s7----------------|
G|-----8-8--6-6-8-------8-6--6s8------|
D|------------------------------------|
A|------------------------------------|
E|------------------------------------|

(2:29-2:39)

e|-21.-21.-21.---21.-21.-21.-------------|
B|---------------------------------------|
G|---------------------------------------|
D|---------------------------------------|
A|---------------------------------------|
E|---------------------------------------|


(2:49-3:10) (this part is pretty quiet)

e|-----11---11---11--9---9---7---7------------|
B|---9----9----9-------9---9---9---9----------|
G|-8------------------------------------------|  1st time
D|--------------------------------------------|
A|--------------------------------------------|
E|--------------------------------------------|


(2:49-3:10)

e|-----11---12---11--9---9---7---7------------|
B|---9----9----9-------9---9---9---9----------|
G|-8------------------------------------------|  2nd time
D|--------------------------------------------|
A|--------------------------------------------|
E|--------------------------------------------|            
Submit corrections

↑ Back to top | Tablatures and chords for acoustic guitar and electric guitar, ukulele, drums are parodies/interpretations of the original songs. You may use it for private study, scholarship, research or language learning purposes only