» » »

Foals - Mountain At My Gates Tabs

Artists:  A B C D E F G H I J K L M N O P Q R S T U V W X Y Z # 

Mountain At My Gates Tabs

(ver. 1) Click to play this song!
Foals
 Rating:
2.5/5 (22 votes)
    Mountain At My Gates  lessons Tabs too difficult? Try these video lessons and learn fast
                Tuning: eBGDAE

Intro

GTR1
e||----------------------------------------------------------------------|
B||----------------------------------------------------------------------|
G||----10-10--10--10-10-x-x-9--9---9---9--9--x-x-7-7--7-7-7-7-7-7-9---9--|
D||----12-12--12--12-12-x-x-10-10--10--10-10-x-x-8-8--8-8-8-8-8-8-10--10-|
A||----12-12--12--12-12-x-x-10-10--10--10-10-x-x-8-8--8-8-8-8-8-8-10--10-|
E||-10-------------------------------------------------------------------|

GTR2
e||----------------------------------------------------------|
B||----18-20-18--------18-20-18-----18-20-18--------18-20-18-|
G||-17----------17--17-----------17----------17--17----------|
D||----------------------------------------------------------|
A||----------------------------------------------------------|
E||----------------------------------------------------------|

GTR1
e||-------------------------------------------------------------------|
B||-------------------------------------------------------------------|
G||-x-x-10--10--10-12-x-x-9--9---9---9--9--x-x-7-7--7-7-x-x-3--3--3-3-|
D||-x-x-12--12--12-12-x-x-10-10--10--10-10-x-x-8-8--8-8-x-x-5--5--5-5-|
A||-x-x-12--12--12-12-x-x-10-10--10--10-10-x-x-8-8--8-8-x-x-5--5--5-5-|
E||-------------------------------------------------------------------|

GTR2
e||----------------------------------------------------------|
B||----18-20-18--------18-20-18-----18-20-18--------18-20-18-|
G||-17----------17--17-----------17----------17--17----------|
D||----------------------------------------------------------|
A||----------------------------------------------------------|
E||----------------------------------------------------------|

Verse

GTR1
e||-----------------------------------------------------------------------|
B||-----------------------------------------------------------------------|
G||-x-x-10-10--10--10-10-x-x-9--9---9---9--9--x-x-7-7--7-7-7-7-7-7-9---9--|
D||-x-x-12-12--12--12-12-x-x-10-10--10--10-10-x-x-8-8--8-8-8-8-8-8-10--10-|
A||-x-x-12-12--12--12-12-x-x-10-10--10--10-10-x-x-8-8--8-8-8-8-8-8-10--10-|
E||-----------------------------------------------------------------------|

GTR2
e||----------------------------------------------------------|
B||----18-20-18--------18-20-18-----18-20-18--------18-20-18-|
G||-17----------17--17-----------17----------17--17----------|
D||----------------------------------------------------------|
A||----------------------------------------------------------|
E||----------------------------------------------------------|

GTR1
e||-------------------------------------------------------------------|
B||-------------------------------------------------------------------|
G||-x-x-10--10--10-12-x-x-9--9---9---9--9--x-x-7-7--7-7-x-x-3--3--3-3-|
D||-x-x-12--12--12-12-x-x-10-10--10--10-10-x-x-8-8--8-8-x-x-5--5--5-5-|
A||-x-x-12--12--12-12-x-x-10-10--10--10-10-x-x-8-8--8-8-x-x-5--5--5-5-|
E||-------------------------------------------------------------------|

GTR2
e||----------------------------------------------------------|
B||----18-20-18--------18-20-18-----18-20-18--------18-20-18-|
G||-17----------17--17-----------17----------17--17----------|
D||----------------------------------------------------------|
A||----------------------------------------------------------|
E||----------------------------------------------------------|

4x

GTR1
e||-----------------------------------------------------------------------|
B||-----------------------------------------------------------------------|
G||-x-x-10-10--10--10-10-x-x-9--9---9---9--9--x-x-7-7--7-7-7-7-7-7-9---9--|
D||-x-x-12-12--12--12-12-x-x-10-10--10--10-10-x-x-8-8--8-8-8-8-8-8-10--10-|
A||-x-x-12-12--12--12-12-x-x-10-10--10--10-10-x-x-8-8--8-8-8-8-8-8-10--10-|
E||-----------------------------------------------------------------------|

GTR2
e||----------------------------------------------|
B||----------------------------------------5-----|
G||-5--7p5---5-----7p5---------7p5---5-------5h7-|
D||--------7----7------7-5--7------7----7--------|
A||----------------------------------------------|
E||----------------------------------------------|

GTR1
e||-------------------------------------------------------------------|
B||-------------------------------------------------------------------|
G||-x-x-10--10--10-12-x-x-9--9---9---9--9--x-x-7-7--7-7-x-x-3--3--3-3-|
D||-x-x-12--12--12-12-x-x-10-10--10--10-10-x-x-8-8--8-8-x-x-5--5--5-5-|
A||-x-x-12--12--12-12-x-x-10-10--10--10-10-x-x-8-8--8-8-x-x-5--5--5-5-|
E||-------------------------------------------------------------------|

GTR2
e||----------------------------------------------|
B||----------------------------------------------|
G||-5--7p5---5-----7p5---------7p5---5-----------|
D||--------7----7------7-5--7------7----5--5--7/-|
A||----------------------------------------------|
E||----------------------------------------------|

2x

Chorus

e||----------------------------------------------------------|
B||-6--6-6--6-6-6-6-6-6--8--10--10-10--10-10-10-10-10-10--10-|
G||-7--7-7--7-7-7-7-7-7--7--10--10-10--10-10-10-10-10-10--12-|
D||-8--8-8--8-8-8-8-8-8--x--12--12-12--12-12-12-12-12-12--xx-|
A||-8--8-8--8-8-8-8-8-8--8--12--12-12--12-12-12-12-12-12--12-|
E||----------------------------------------------------------|

e||----------------------------------------------------------|
B||-8---8--8---8--8--8--8--8--8---10--3--3-3--3-3-3-3-3-3--5-|
G||-9---9--9---9--9--9--9--9--9---9---4--4-4--4-4-4-4-4-4--4-|
D||-10--10-10--10-10-10-10-10-10--x---5--5-5--5-5-5-5-5-5--x-|
A||-10--10-10--10-10-10-10-10-10--10--5--5-5--5-5-5-5-5-5--5-|
E||----------------------------------------------------------|


Solo

e||---------------------------------------------------------------|
B||----13-----13-----13-----13-/15-13-----8-----8-----8-/10-8-6---|
G||-14-----14-----14-----14------------10----10----10-----------7-|
D||---------------------------------------------------------------|
A||---------------------------------------------------------------|
E||---------------------------------------------------------------|

e||------------------------------------------------|
B||---3----3----3-/10-8-6------3----3----3-6-6-6p3-|
G||-5----5----5-----------7--5----5----5-----------|
D||------------------------------------------------|
A||------------------------------------------------|
E||------------------------------------------------|

2x            
Submit corrections

↑ Back to top | Tablatures and chords for acoustic guitar and electric guitar, ukulele, drums are parodies/interpretations of the original songs. You may use it for private study, scholarship, research or language learning purposes only