» » »

Foals - Birch Tree Tabs

Artists:  A B C D E F G H I J K L M N O P Q R S T U V W X Y Z # 

Birch Tree Tabs

(ver. 1) Click to play this song!
Foals
 Rating:
2.8/5 (29 votes)
                Tuning: Standard

e|---------------------------------------------------------------------------|
B|---------------------------------------------------------------------------|
G|---------------------------------------------------------------------------|
D|---7---7---7----6---6----4---4---4----6---6--------------------------------|
A|-9---9---9----7---7----5---5---5----7---7----------------------------------|
E|---------------------------------------------------------------------------|

e|---------------------------------------------------------------------------|
B|---------------------------------------------------------------------------|
G|---------------------------------------------------------------------------|
D|---7---7---7h9p7---6---6----4---4---4----0---0-----------------------------|
A|-9---9---9-----------7----5---5---5----2---2-------------------------------|
E|---------------------------------------------------------------------------|
            
Submit corrections

↑ Back to top | Tablatures and chords for acoustic guitar and electric guitar, ukulele, drums are parodies/interpretations of the original songs. You may use it for private study, scholarship, research or language learning purposes only