Home » F » Foals »

Foals - Mountain At My Gates Tabs

Artists:  A B C D E F G H I J K L M N O P Q R S T U V W X Y Z # 

Mountain At My Gates Tabs

(ver. 2) Click to play this song!
Foals
Intro/Verse 1/Chorus 1:
Guitar 1:
e|------------------------------------------------------------------------------------|
B|---6-6-6-6-xx-5-5-5-5-xx-3-3-3-3-3-3-5-5--6-6-6-8-xx-5-5-5-5-xx-3-3-3-3-xx-3-3-3-3--|
G|---7-7-7-7-xx-5-5-5-5-xx-3-3-3-3-3-3-5-5--7-7-7-7-xx-5-5-5-5-xx-3-3-3-3-xx-3-3-3-3--| x5
D|---7-7-7-7-xx-5-5-5-5-xx-3-3-3-3-3-3-5-5--7-7-7-x-xx-5-5-5-5-xx-3-3-3-3-xx-5-5-5-5--|
A|-5-5-5-5-5-xx-3-3-3-3-xx-1-1-1-1-1-1-3-3--5-5-5-x-xx-3-3-3-3-xx-1-1-1-1-xx-5-5-5-5--|
E|---------------------------------------------------------------------------3-3-3-3--|
 |Guitar 2 (Fades in):
e|----13-15-13-------13-15-13----13-15-13-------13-15-13--|
B|-13----------13-13----------13----------13-13-----------|
G|--------------------------------------------------------| x10
D|--------------------------------------------------------|
A|--------------------------------------------------------|
E|--------------------------------------------------------|

Post-Chorus:
Guitar 1:
e|----------------------------------------------------------------------------------|
B|-6-6-6-6-xx-5-5-5-5-xx-3-3-3-3-3-3-5-5--6-6-6-8-xx-5-5-5-5-xx-3-3-3-3-xx-3-3-3-3--|
G|-7-7-7-7-xx-5-5-5-5-xx-3-3-3-3-3-3-5-5--7-7-7-7-xx-5-5-5-5-xx-3-3-3-3-xx-3-3-3-3--| 
D|-7-7-7-7-xx-5-5-5-5-xx-3-3-3-3-3-3-5-5--7-7-7-x-xx-5-5-5-5-xx-3-3-3-3-xx-5-5-5-5--|
A|-5-5-5-5-xx-3-3-3-3-xx-1-1-1-1-1-1-3-3--5-5-5-x-xx-3-3-3-3-xx-1-1-1-1-xx-5-5-5-5--|
E|----------------------------------------------------------------------------------|
 |Guitar 2:
e|----------------------------------------------------------------------------|
B|----------------------------------------------------------------------------|
G|-7p5---5---7p5--------7p5---5---9-5/7--5-7p5---5---7p5-------7p5---5--------|
D|-----7---7-----7-5--7-----7---7--------------7---7-----7-5-7-----7---5-5-7--|
A|----------------------------------------------------------------------------|
E|----------------------------------------------------------------------------|

Verse 2 has no guitar for a bit, then: 

Pre-Chorus:
Guitar 1 (I think this is the rhythm):
e|----------------------------------------------------------------|               |
B|-3-333-333-33356-666-666-666-665-555-555-555-553-333-333-333----|               |
G|-3-333-333-33357-777-777-777-775-555-555-555-554-444-444-444-2--|               |
D|-3-333-333-33357-777-777-777-775-555-555-555-555-555-555-555-2--|               |
A|-1-111-111-11135-555-555-555-553-333-333-333-335-555-555-555----|               |
E|----------------------------------------------------------------|               |
 |Guitar 2:                                                                       |
e|---------------------------------------------------------------------------|    |
B|-------------------------------8-10-8-------------------------------8-10-8-|    |
G|-10--10-10-10--10-10-10--10-10--------10--10-10-10--10-10-10--10-10--------|    | x2
D|---------------------------------------------------------------------------|    |
A|---------------------------------------------------------------------------|    |
E|---------------------------------------------------------------------------|    |
 ||                                                                               |    
e|-------------------------------------------------------|                        |
B|----------------------8-10-8---------------------------|                        |
G|-9--9-9-9--9-9-9--9-9--------7--7-7-7--7-7-7--7-7-7-9--|                        |
D|-------------------------------------------------------|                        |
A|-------------------------------------------------------|                        |
E|-------------------------------------------------------|                        |

Chorus:
Guitar 1:
e|----------------------------------------------------------------------------------|
B|-6-6-6-6-xx-5-5-5-5-xx-3-3-3-3-3-3-5-5--6-6-6-8-xx-5-5-5-5-xx-3-3-3-3-xx-3-3-3-3--|
G|-7-7-7-7-xx-5-5-5-5-xx-3-3-3-3-3-3-5-5--7-7-7-7-xx-5-5-5-5-xx-3-3-3-3-xx-3-3-3-3--| x2 
D|-7-7-7-7-xx-5-5-5-5-xx-3-3-3-3-3-3-5-5--7-7-7-x-xx-5-5-5-5-xx-3-3-3-3-xx-5-5-5-5--|
A|-5-5-5-5-xx-3-3-3-3-xx-1-1-1-1-1-1-3-3--5-5-5-x-xx-3-3-3-3-xx-1-1-1-1-xx-5-5-5-5--|
E|----------------------------------------------------------------------------------|
 |Guitar 2
e|----13-15-13-------13-15-13----13-15-13-------13-15-13--|
B|-13----------13-13----------13----------13-13-----------|
G|--------------------------------------------------------| x4 
D|--------------------------------------------------------|
A|--------------------------------------------------------|
E|--------------------------------------------------------|

Repeat Post-Chorus
Repeat Pre-Chorus

Then no guitar to start in the bridge, but guitar 2 comes in after a short while with:
e|----13-15-13-------13-15-13----13-15-13-------13-15-13--|
B|-13----------13-13----------13----------13-13-----------|
G|--------------------------------------------------------| x2
D|--------------------------------------------------------|
A|--------------------------------------------------------|
E|--------------------------------------------------------|

Repeat Pre-Chorus

Build:
Guitar 1:                
e|------------------------------------------------------------|                   |
B|---13---13----13---13-13/15-13----8---8----8----8/10-8------|                   |
G|-14---14---14---14-------------10--10---10---10--------10-7-|                   |
D|------------------------------------------------------------|                   |
A|------------------------------------------------------------|                   |
E|------------------------------------------------------------|                   |
 ||                                                                               |
e|----------------------------------------------------------------------------|   |
B|----------------------------------------------------------------------------|   |
G|----------------------12/14-12-10----------------------10-10-10-10-10-10----|   |
D|-10h12-10h12-10h12-10-------------12-10h12-10h12-10h12-------------------12-|   |
A|----------------------------------------------------------------------------|   |
E|----------------------------------------------------------------------------|   |
 |Guitar 2:                                                                       | x2
e|---------------------------------------------------------------------------|    |
B|-------------------------------8-10-8-------------------------------8-10-8-|    |
G|-10--10-10-10--10-10-10--10-10--------10--10-10-10--10-10-10--10-10--------|    |
D|---------------------------------------------------------------------------|    |
A|---------------------------------------------------------------------------|    |
E|---------------------------------------------------------------------------|    |
 ||                                                                               |    
e|-------------------------------------------------------|                        |
B|----------------------8-10-8---------------------------|                        |
G|-9--9-9-9--9-9-9--9-9--------7--7-7-7--7-7-7--7-7-7-9--|                        |
D|-------------------------------------------------------|                        |
A|-------------------------------------------------------|                        |
E|-------------------------------------------------------|                        |            
Submit corrections

↑ Back to top | Tablatures and chords for acoustic guitar and electric guitar, ukulele, drums are parodies/interpretations of the original songs. You may use it for private study, scholarship, research or language learning purposes only