Home » F » Foals »

Foals - Birch Tree Bass

Artists:  A B C D E F G H I J K L M N O P Q R S T U V W X Y Z # 

Birch Tree Bass

(ver. 2) Click to play this song!
Foals
Verse-1
G-----------------------------------------------------------
D-----------------------------------------------------------
A-----------0-2-----2----------------0-2----2-2-0-4-0-------
D ----4-4---------------2-4------4--------------------------

G-----------------------------------------------------------
D-----------------------------------------------------------
A-----------0-2-----2----------------0-2----2-2-0-4-0-------
D ----4-4---------------2-4------4--------------------------

G-----------------------------------------------------------
D-----------------------------------------------------------
A-----------0-2-----2----------------0-2----2-2-0-4-0-------
D ----4-4---------------2-4------4--------------------------

G-----------------------------------------------------------
D-----------------------------------------------------------
A-----------0-2-----2----------------0-2--------------------
D ----4-4---------------2-4------4--------------------------

Chorus-1
G---------------------------------------------------------------------------------------
D--------7-7----------------------------------------------------------------------------
A--------------9-7-9-2-----0h2-0-4-0--------------------0-0-2------0h2-0-4-0------------
D ----4------------------------------------4------4-4-4---------------------------------

G---------------------------------------------------------------------------------------
D--------7-7----------------------------------------------------------------------------
A--------------9-7-9-2-----0h2-0-4-0--------------------0-0-2------0h2-0-4-0------------
D ----4------------------------------------4------4-4-4---------------------------------

G---------------------------------------------------------------------------------------
D--------7-7----------------------------------------------------------------------------
A--------------9-7-9-2-----0h2-0-4-0--------------------0-0-2------0h2-0-4-0------------
D ----4------------------------------------4------4-4-4---------------------------------
?
Verse 2
G-----------------------------------------------------------
D-----------------------------------------------------------
A-----------0-2-----2----------------0-2----2-2-0-4-0-------
D ----4-4---------------2-4------4--------------------------

G-----------------------------------------------------------
D-----------------------------------------------------------
A-----------0-2-----2----------------0-2----2-2-0-4-0-------
D ----4-4---------------2-4------4--------------------------

G-----------------------------------------------------------
D-----------------------------------------------------------
A-----------0-2-----2----------------0-2----2-2-0-4-0-------
D ----4-4---------------2-4------4--------------------------

G-----------------------------------------------------------
D--------------------------------------4\2-------X-X-2h4----
A-----------0-2-----2--4--5------5--7-----------------------
D ----4-4---------------------------------------------------

Chorus-2
G------------------------------------------------------------------------------------
D--------7-7-------------------------------------------------------------------------
A--------------9-7-9-2-----0h2-0-4-0------------------0-0-2------0h2-0-4-0-----------
D ----4------------------------------------4---4-4-4---------------------------------

G------------------------------------------------------------------------------------
D--------7-7-------------------------------------------------------------------------
A--------------9-7-9-2-----0h2-0-4-0------------------0-0-2------0h2-0-4-0-----------
D ----4------------------------------------4---4-4-4---------------------------------

G------------------------------------------------------------------------------------
D--------7-7-------------------------------------------------------------------------
A--------------9-7-9-2-----0h2-0-4-0------------------0-0-2------0h2-0-4-0-----------
D ----4------------------------------------4---4-4-4---------------------------------

G------------------------------------------------------------------------------------
D--------7-7-------------------------------------------------------------------------
A--------------9-7-9-2-----0h2-0-4-0------------------0-0-2------0h2-0-4-0-----------
D ----4------------------------------------4---4-4-4---------------------------------

G---------------------------------------------------------------------------------------
D---------------------------------------------------------------------------------------
A---------------------------------------------------------------------------------------
D ----4\1----------------------------------4\1------------------------------------------
?
Break 

Bridge (Start when drum come)
G------------------------------------------------------------------
D------------------------------------------------------------------
A------------------------------------------------------------------
D ----44444444----22222222----00000000----22222222-----------------

G------------------------------------------------------------------
D------------------------------------------------------------------
A------------------------------------------------------------------
D ----44444444----22222222----00000000----22222222-----------------

Outro
G------------------------------------------------------------------------
D-------7-7---------------------------------------2----------------------
A-----------9-7-9-2-----0h2-0-4-0---------0h2-0-4-----------0h2-0-4-0----
D ----4---------------------------0-----------------2--------------------

G------------------------------------------------------------------------
D-------7-7---------------------------------------2----------------------
A-----------9-7-9-2-----0h2-0-4-0---------0h2-0-4-----------0h2-0-4-0----
D ----4---------------------------0-----------------2--------------------

G------------------------------------------------------------------------
D-------7-7---------------------------------------2----------------------
A-----------9-7-9-2-----0h2-0-4-0---------0h2-0-4-----------0h2-0-4-0----
D ----4---------------------------0-----------------2--------------------

G------------------------------------------------------------------------
D-------7-7---------------------------------------2----------------------
A-----------9-7-9-2-----0h2-0-4-0---------0h2-0-4-----------0h2-0-4-0----
D ----4---------------------------0-----------------2--------------------

Last Chorus
G------------------------------------------------------------------------------------
D--------7-7-------------------------------------------------------------------------
A--------------9-7-9-2-----0h2-0-4-0------------------0-0-2------0h2-0-4-0-----------
D ----4------------------------------------4---4-4-4---------------------------------

G------------------------------------------------------------------------------------
D--------7-7-------------------------------------------------------------------------
A--------------9-7-9-2-----0h2-0-4-0------------------0-0-2------0h2-0-4-0-----------
D ----4------------------------------------4---4-4-4---------------------------------

            
Submit corrections

↑ Back to top | Tablatures and chords for acoustic guitar and electric guitar, ukulele, drums are parodies/interpretations of the original songs. You may use it for private study, scholarship, research or language learning purposes only