Home » F » Foals »

Foals - Birch Tree Tabs

Artists:  A B C D E F G H I J K L M N O P Q R S T U V W X Y Z # 

Birch Tree Tabs

(ver. 4) Click to play this song!
Foals
[Intro]
e|---------------------------12-12------|------------------------12-12-------|
B|-14---------------14-14-14-------11---|-----------12-14--14-14-------------|
G|-----------11-------------------------|-14--14-14--------------------11----|
D|--------------------------------------|------------------------------------|
A|--------------------------------------|------------------------------------|
E|--------------------------------------|------------------------------------|

e|--------------------------------------|------------------------------------|
B|-----------12-14--14-14-14-12-12------|---------------14-14-14-12-12-------|
G|-14--14-14-----------------------14---|-14--14-14-11-----------------14----|
D|--------------------------------------|------------------------------------|
A|--------------------------------------|------------------------------------|
E|--------------------------------------|------------------------------------|

e|---------------------------12-12------|---------------------------12-12----|
B|------------------14-14-14------------|-----------12-14--14-14-14----------|
G|-14--------11--------------------11---|-14--14-14-----------------------11-|
D|--------------------------------------|------------------------------------|
A|--------------------------------------|------------------------------------|
E|--------------------------------------|------------------------------------|

e|--------------------------------------|------------------------------------|
B|-----------12-14--14-14-14-12-12------|----------------------------10------|
G|-14--14-14-----------------------14---|-14--14-14-11-----9h11-9h11----11---|
D|--------------------------------------|------------------------------------|
A|--------------------------------------|------------------------------------|
E|--------------------------------------|------------------------------------|

[Verse]
e|--------------------------------------|
B|------------------5--------5h7~-------|
G|--------------------------------------|
D|--------------------------------------|
A|--------------------------------------|
E|--------------------------------------|

[Pre-Chorus]
e|-------------------------------|------------------------9------|
B|---------10-12----------10-----|---------10-12------------10---|
G|-9--9-11---------9-9-11----11--|-9--9-11---------9-9-11--------|
D|-------------------------------|-------------------------------|
A|-------------------------------|-------------------------------|
E|-------------------------------|-------------------------------|

[Chorus]
e|-------------------------------|------------------------9------|
B|---------10-12----------10-----|---------10-12------------10---|
G|-9--9-11---------9-9-11----11--|-9--9-11---------9-9-11--------|
D|-------------------------------|-------------------------------|
A|-------------------------------|-------------------------------|
E|-------------------------------|-------------------------------|

e|-------------------------------|------------------------9------|
B|----------10-12---------10-----|---------10-12------------10---|
G|-9-9-9-11--------9-9-11----11--|-9--9-11---------9-9-11--------|
D|-------------------------------|-------------------------------|
A|-------------------------------|-------------------------------|
E|-------------------------------|-------------------------------|

[Verse]
My hearts' a ...
e|-5-------------------------|-5-5-------------------------|
B|----7-7-7-7--5-5--7-7-7-7--|------7-7-7-7--5-5--7-7-7-7--|
G|---------------------------|-----------------------------|
D|---------------------------|-----------------------------|
A|---------------------------|-----------------------------|
E|---------------------------|-----------------------------|
   . 

[Chorus]
e|-------------------------------|------------------------9------|
B|---------10-12----------10-----|---------10-12------------10---|
G|-9--9-11---------9-9-11----11--|-9--9-11---------9-9-11--------|
D|-------------------------------|-------------------------------|
A|-------------------------------|-------------------------------|
E|-------------------------------|-------------------------------|

e|-------------------------------|------------------------9------|
B|----------10-12---------10-----|---------10-12------------10---|
G|-9-9-9-11--------9-9-11----11--|-9--9-11---------9-9-11--------|
D|-------------------------------|-------------------------------|
A|-------------------------------|-------------------------------|
E|-------------------------------|-------------------------------|

[Post-Chorus]
e|-------------------------------|
B|-------------------------------|
G|-------------------------------|
D|---------------------7-7--7----|
A|-----------------7h9--------9--|
E|-------------------------------|

[Interlude]
e|---------------------------12-12------|------------------------12-12-------|
B|-14---------------14-14-14-------11---|-----------12-14--14-14-------------|
G|-----------11-------------------------|-14--14-14--------------------11----|
D|--------------------------------------|------------------------------------|
A|--------------------------------------|------------------------------------|
E|--------------------------------------|------------------------------------|

e|--------------------------------------|------------------------------------|
B|-----------12-14--14-14-14-12-12------|---------------14-14-14-12-12-------|
G|-14--14-14-----------------------14---|-14--14-14-11-----------------14----|
D|--------------------------------------|------------------------------------|
A|--------------------------------------|------------------------------------|
E|--------------------------------------|------------------------------------|

e|---------------------------12-12------|------------------------12-12-------|
B|------------------14-14-14------------|-----------12-14--14-14-------------|
G|-14--14-14-11--------------------11---|-14--14-14--------------------11----|
D|--------------------------------------|------------------------------------|
A|--------------------------------------|------------------------------------|
E|--------------------------------------|------------------------------------|

e|--------------------------------------|------------------------------------|
B|-----------12-14--14-14-14-12-12------|---------------14-14-14-12-12-------|
G|-14--14-14-----------------------14---|-14--14-14-11-----------------14----|
D|--------------------------------------|------------------------------------|
A|--------------------------------------|------------------------------------|
E|--------------------------------------|------------------------------------|

Repeat, but play next line instead of previous

e|--------------------------------------|------------------------------------|
B|-----------12-14--14-14-14-12-12------|----------------------------10------|
G|-14--14-14-----------------------14---|-14--14-14-11-----9h11-9h11----11---|
D|--------------------------------------|------------------------------------|
A|--------------------------------------|------------------------------------|
E|--------------------------------------|------------------------------------|

[Chorus]
e|---------------------------12-12------|------------------------12-12-------|
B|-14---------------14-14-14-------11---|-----------12-14--14-14-------------|
G|-----------11-------------------------|-14--14-14--------------------11----|
D|--------------------------------------|------------------------------------|
A|--------------------------------------|------------------------------------|
E|--------------------------------------|------------------------------------|

e|--------------------------------------|------------------------------------|
B|-----------12-14--14-14-14-12-12------|---------------14-14-14-12-12-------|
G|-14--14-14-----------------------14---|-14--14-14-11-----------------14----|
D|--------------------------------------|------------------------------------|
A|--------------------------------------|------------------------------------|
E|--------------------------------------|------------------------------------|

e|---------------------------12-12------|---------------------------12-12----|
B|------------------14-14-14------------|-----------12-14--14-14-14----------|
G|-14--14-14-11--------------------11---|-14--14-14-----------------------11-|
D|--------------------------------------|------------------------------------|
A|--------------------------------------|------------------------------------|
E|--------------------------------------|------------------------------------|

e|--------------------------------------|------------------------------------|
B|-----------12-14--14-14-14-12-12------|----------------------------10------|
G|-14--14-14-----------------------14---|-14--14-14-11-----9h11-9h11----11---|
D|--------------------------------------|------------------------------------|
A|--------------------------------------|------------------------------------|
E|--------------------------------------|------------------------------------|

e|-------------------------------|------------------------9------|
B|---------10-12----------10-----|---------10-12------------10---|
G|-9--9-11---------9-9-11----11--|-9--9-11---------9-9-11--------|
D|-------------------------------|-------------------------------|
A|-------------------------------|-------------------------------|
E|-------------------------------|-------------------------------|

e|-------------------------------|------------------------9------|
B|----------10-12---------10-----|---------10-12------------10---|
G|-9-9-9-11--------9-9-11----11--|-9--9-11---------9-9-11--------|
D|-------------------------------|-------------------------------|
A|-------------------------------|-------------------------------|
E|-------------------------------|-------------------------------|

[Outro]
e|-------------------------------|------------------------9------|
B|---------10-12----------10-----|---------10-12------------10---|
G|-9--9-11---------9-9-11----11--|-9--9-11---------9-9-11--------|
D|-------------------------------|-------------------------------|
A|-------------------------------|-------------------------------|
E|-------------------------------|-------------------------------|

e|-------------------------------|------------------------9------|
B|----------10-12---------10-----|---------10-12------------10---|
G|-9-9-9-11--------9-9-11----11--|-9--9-11---------9-9-11--------|
D|-------------------------------|-------------------------------|
A|-------------------------------|-------------------------------|
E|-------------------------------|-------------------------------|            
Submit corrections

↑ Back to top | Tablatures and chords for acoustic guitar and electric guitar, ukulele, drums are parodies/interpretations of the original songs. You may use it for private study, scholarship, research or language learning purposes only