Home » F » Foals »

Foals - Birch Tree Tabs

Artists:  A B C D E F G H I J K L M N O P Q R S T U V W X Y Z # 

Birch Tree Tabs

(ver. 2) Click to play this song!
Foals
Tuning: Standard

Tab for the lead guitar that plays clearly over the intro from 0:08 - 0:18

e|---------------------------------------------------------------------------|
B|-14--------14-14-14--17-14---------------------14-----14-14-14-17-14-------|
G|------16--------------------------14-14-14-16------------------------------|
D|---------------------------16----------------------------------------16----|
A|---------------------------------------------------------------------------|
E|---------------------------------------------------------------------------|

e|---------------------------------------------------------------------------|
B|-------------14----14-14-14---------------------------14-14-14-------------|
G|-14-14-14-16-----------------16-16-14----14-14------------------16-16--14--|
D|------------------------------------------------16-------------------------|
A|---------------------------------------------------------------------------|
E|---------------------------------------------------------------------------|
            
Submit corrections

↑ Back to top | Tablatures and chords for acoustic guitar and electric guitar, ukulele, drums are parodies/interpretations of the original songs. You may use it for private study, scholarship, research or language learning purposes only