Home » D » Def Leppard »

Def Leppard - Photograph Bass

Artists:  A B C D E F G H I J K L M N O P Q R S T U V W X Y Z # 

Photograph Bass

(ver. 3) Click to play this song!
Def Leppard
 Rating:
4/5 (4 votes)
                
Tuning: EbADG

Time signature: 4/4

r = rest (listen for duration)
h = hammer on
/ = slide (low to high)
\ = slide (high to low)
{}= note inside pointed parenthesis still ringing from previous measure
||= measure gets repeated (see number of times above measure, e.g. 4x)

*My tabs are meant to be read in conjunction with listening to the song.
In other words, there are no specific notations to account for note/rest duration. 
However, you will find that I've made an attempt to strategically space the notes 
and rests within their respective measures in order to represent the appropriate 
durations.


GUITAR INTRO / VERSE 1

    15x
 G||--------------------------------||-----------------------------------|
 D||--------------------------------||-----------------------------------|
 A||--------------------------------||-----------------------------------|
Eb||r-------------------------------||r-------------------12---12---12\--|


  3x
||--------------------------------|-----------------------------------||
||--------------------------------|-----------------------------------||
||--------------------------------|-----------------------------------||
||0---0---0---0---0---0---0---0---|0---0---0---0---0---12---12---12\--||



|--------------------------------|--------------------------------------|
|--------------------------------|--------------------------------------|
|--------------------------------|-------/11---11---11---11---11---11---|
|--------0---7-----------7---5---|--------------------------------------|


                 
PRE-CHORUS  

  2x
||--------------------------------|--------------------------------|
||--------------------------------|--------------------------------|
||2---2---2---r---------------1---|----1---1---r---------------4---|
||--------------------------------|--------------------------------|



|--------------------------------|--------------------------------||
|--------------------------------|--------------------------------||
|----------------------------4---|--------------------------------||
|----5---5-----------------------|----5-------3-------5-------5---||



CHORUS

|--------------------------------|--------------------------------|
|--------------------------------|--------------------------------|
|1---1---1---2---2---2---2---2---|4---4---4---6---6---6---6---6---|
|--------------------------------|--------------------------------|



|--------------------------------|--------------------------------|
|--------------------------------|--------------------------------|
|1---1---1---2---2---2---2---2---|6---6---6---4---4---4---4---4---|
|--------------------------------|--------------------------------|



|--------------------------------|--------------------------------|
|--------------------------------|--------------------------------|
|1---1---1---2---2---2---2---2---|4---4---4---6---6---6---6---6---|
|--------------------------------|--------------------------------|



|--------------------------------|--------------------------------|
|--------------------------------|--------------------------------|
|1---1---1---2---2---2---2---2---|{2}-----------------------------|
|--------------------------------|--------------------------------|



|--------------------------------|--------------------------------|
|--------------------------------|--------------------------------|
|r-------------------------------|r-------------------------------|
|--------------------------------|--------------------------------|



VERSE 2

||--------------------------------|--------------------------------||
||--------------------------------|--------------------------------||
||--------------------------------|--------------------------------||
||0---0---0---0---0---0---0---0---|0---0---0---0---0---0---0---0---||



|--------------------------------|-----------------------------------|
|--------------------------------|-----------------------------------|
|--------------------------------|-----------------------------------|
|0---0---0---0---0---0---0---0-0-|5-------------------12---12---12\--|


  3x
||--------------------------------|-----------------------------------||
||--------------------------------|-----------------------------------||
||--------------------------------|-----------------------------------||
||0---0---0---0---0---0---0---0---|0---0---0---0---0---12---12---12\--||



|--------------------------------|--------------------------------------|
|--------------------------------|--------------------------------------|
|--------------------------------|-------/11---11---11---11---11---11---|
|--------0---7-----------7---5---|--------------------------------------|



[PRE-CHORUS]



CHORUS 2

|--------------------------------|--------------------------------|
|--------------------------------|--------------------------------|
|1---1---1---2---2---2---2---2---|4---4---4---6---6---6---6---6---|
|--------------------------------|--------------------------------|



|--------------------------------|--------------------------------|
|--------------------------------|--------------------------------|
|1---1---1---2---2---2---2---2---|6---6---6---4---4---4---4---4---|
|--------------------------------|--------------------------------|



|--------------------------------|--------------------------------|
|--------------------------------|--------------------------------|
|1---1---1---2---2---2---2---2---|4---4---4---6---6---6---6---6---|
|--------------------------------|--------------------------------|



|--------------------------------|--------------------------------|
|--------------------------------|--------------------------------|
|1---1---1---2---2---2---2---2/--|6-----------4-------------------|
|--------------------------------|--------------------------------|


  2x
||--------------------------------|--------------------------------||
||--------------------------------|--------------------------------||
||r-------------------------------|r-------------------------------||
||--------------------------------|--------------------------------||



|--------------------------------|---------------------------------|
|--------------------------------|---------------------------------|
|--------------------------------|---------------------------------|
|r-------0---r-----------0---r---|--------0---r-------0-0-12---0-0-|



|--------------------------------|--------------------------------|
|--------------------------------|--------------------------------|
|--------------------------------|--------------------------------|
|0---r---------------------------|0/------------------------------|



SOLO

  3x
||--------------------------------|--------------------------------||
||--------------------------------|--------------------------------||
||--------------------------------|--------------------------------||
||0---0---0---7---7---7---7---0---|5---5---5---5---5---5---5---5---||



|--------------------------------|--------------------------------|
|--------------------------------|--------------------------------|
|--------------------------------|--------------------------------|
|0-----------7---------------0---|5-------5---5---5---5---5---5---|



[PRE-CHORUS]



CHORUS 3

|--------------------------------|--------------------------------|
|--------------------------------|--------------------------------|
|1---1---1---2---2---2---2---2---|4---4---4---6---6---6---6---6---|
|--------------------------------|--------------------------------|



|--------------------------------|--------------------------------|
|--------------------------------|--------------------------------|
|1---1---1---2---2---2---2---2---|6---6---6---4---4---4---4---4---|
|--------------------------------|--------------------------------|



|--------------------------------|--------------------------------|
|--------------------------------|--------------------------------|
|1---1---1---2---2---2---2---2---|4---4---4---6---6---6---6---6---|
|--------------------------------|--------------------------------|



|--------------------------------|--------------------------------|
|--------------------------------|--------------------------------|
|1---1---1---2---2---2---2\------|r-------------------------------|
|--------------------------------|--------------------------------|



|--------------------------------|--------------------------------|
|--------------------------------|--------------------------------|
|r---2---2---2---2---2---2---2---|2---2---2---2---2-h-4---4/--6---|
|--------------------------------|--------------------------------|



OUTRO 

  Repeat to fade
||--------------------------------|--------------------------------|
||--------------------------------|--------------------------------|
||1---1---1---2---2---2---2---2---|4---4---4---6---6---6---6---6---|
||--------------------------------|--------------------------------|



|--------------------------------|--------------------------------||
|--------------------------------|--------------------------------||
|1---1---1---2---2---2---2---2---|6---6---6---4---4---4---4---4---||
|--------------------------------|--------------------------------||


(PLEASE RATE THIS TAB / LEAVE COMMENT)
            
Submit corrections

↑ Back to top | Tablatures and chords for acoustic guitar and electric guitar, ukulele, drums are parodies/interpretations of the original songs. You may use it for private study, scholarship, research or language learning purposes only