» » »

Def Leppard - Photograph Bass

Artists:  A B C D E F G H I J K L M N O P Q R S T U V W X Y Z # 

Photograph Bass

(ver. 1) Click to play this song!
Def Leppard
 Rating:
4/5 (4 votes)

 Photograph lessons Tabs too difficult? Try these video lessons and learn fast
 
                Photograph                                    


                                                                     Def Leppard
Bass



                                                                                
F#||------------------|------------------|------------------|------------------|
C#||------------------|------------------|------------------|------------------|
G#||------------------|------------------|------------------|------------------|
D#||------------------|------------------|------------------|------------------|


                                                                            
------------------|------------------|------------------|------------------|
------------------|------------------|------------------|------------------|
------------------|------------------|------------------|------------------|
------------------|------------------|------------------|------------------|


                                                                            
------------------|------------------|------------------|------------------|
------------------|------------------|------------------|------------------|
------------------|------------------|------------------|------------------|
------------------|------------------|------------------|------------------|


                                                         
------------------|------------------|------------------|
------------------|------------------|------------------|
------------------|------------------|------------------|
------------------|------------------|------------------|


                                                   
------------------------|-------------------------|
------------------------|-------------------------|
------------------------|-------------------------|
------------12--12--12--|----0--0--0--0--0--0--0--|


                                                        
-----------------------------|-------------------------|
-----------------------------|-------------------------|
-----------------------------|-------------------------|
--0--0--0--0--0--12--12--12--|----0--0--0--0--0--0--0--|


                                                        
-----------------------------|-------------------------|
-----------------------------|-------------------------|
-----------------------------|-------------------------|
--0--0--0--0--0--12--12--12--|----0--0--0--0--0--0--0--|


                                                                                
-----------------------------|------------------------|------------------------|
-----------------------------|------------------------|-------7--7----7--7--7--|
-----------------------------|--------2--2------0--0--|----0-------------------|
--0--0--0--0--0--12--12--12--|--12/-------------------|------------------------|


                                                                   
----------------------|---------------------|---------------------|
----------------------|---------------------|---------------------|
--3--3--3----------2--|----2--2----------5--|----0--0----------5--|
----------------------|---------------------|---------------------|


                                                                      
------------------------|----------------------|---------------------|
------------------------|----------------------|---------------------|
----0--0-------0--0--2--|--3--3--3----------2--|----2--2----------5--|
----------3b------------|----------------------|---------------------|


                                                                          
---------------------|------------------------|--------------------------|
---------------------|------------------------|--------------------------|
----0--0----------5--|----0--0-------0--0--2--|--2--2--2--3--3--3--3--3--|
---------------------|----------3b------------|--------------------------|


                                                      
--------------------------|--------------------------|
--------------------------|--------------------------|
--5--5--5--7--7--7--7--0--|--2--2--2--3--3--3--3--3--|
--------------------------|--------------------------|


                                                      
--------------------------|--------------------------|
--------------------------|--------------------------|
--5--5--5--7--7--7--7--0--|--2--2--2--3--3--3--3--3--|
--------------------------|--------------------------|


                                                                        
--------------------------|-------------------------|------------------|
--------------------------|-------------------------|------------------|
--5--5--5--7--7--7--7--0--|--2--2--2--3--3--3--3----|------------------|
--------------------------|-------------------------|------------------|


                                                                 
------------------|------------------|--------------------------|
------------------|------------------|--------------------------|
------------------|------------------|--------------------------|
------------------|------------------|--0--0--0--0--0--0--0--0--|


                                                      
--------------------------|--------------------------|
--------------------------|--------------------------|
--------------------------|--------------------------|
--0--0--0--0--0--0--0--0--|--0--0--0--0--0--0--0--0--|


                                                      
--------------------------|--------------------------|
--------------------------|--------------------------|
--------------------------|--------------------------|
--0--0--0--0--0--0--0--0--|--0--0--0--0--0--0--0--0--|


                                                       
--------------------------|---------------------------|
--------------------------|---------------------------|
--------------------------|---------------------------|
--0--0--0--0--0--0--0--0--|--0--0--0--0--0--0--0--5-5-|


                                                     
-------------------------|--------------------------|
-------------------------|--------------------------|
-------------------------|--------------------------|
--5----------12--12--12--|--0--0--0--0--0--0--0--0--|


                                                        
-----------------------------|-------------------------|
-----------------------------|-------------------------|
-----------------------------|-------------------------|
--0--0--0--0--0--12--12--12--|----0--0--0--0--0--0--0--|


                                                        
-----------------------------|-------------------------|
-----------------------------|-------------------------|
-----------------------------|-------------------------|
--0--0--0--0--0--12--12--12--|----0--0--0--0--0--0--0--|


                                                                                
-----------------------------|------------------------|------------------------|
-----------------------------|------------------------|-------7--7----7--7--7--|
-----------------------------|--------2--2------0--0--|----0-------------------|
--0--0--0--0--0--12--12--12--|--12/-------------------|------------------------|


                                                                   
----------------------|---------------------|---------------------|
----------------------|---------------------|---------------------|
--3--3--3----------2--|----2--2----------5--|----0--0----------5--|
----------------------|---------------------|---------------------|


                                                                      
------------------------|----------------------|---------------------|
------------------------|----------------------|---------------------|
----0--0-------0--0--2--|--3--3--3----------2--|----2--2----------5--|
----------3b------------|----------------------|---------------------|


                                                                          
---------------------|------------------------|--------------------------|
---------------------|------------------------|--------------------------|
----0--0----------5--|----0--0-------0--0--2--|--2--2--2--3--3--3--3--3--|
---------------------|----------3b------------|--------------------------|


                                                      
--------------------------|--------------------------|
--------------------------|--------------------------|
--7--7--7--5--5--5--5--0--|--2--2--2--3--3--3--3--3--|
--------------------------|--------------------------|


                                                      
--------------------------|--------------------------|
--------------------------|--------------------------|
--7--7--7--5--5--5--5--0--|--2--2--2--3--3--3--3--3--|
--------------------------|--------------------------|


                                                                        
--------------------------|-------------------------|------------------|
--------------------------|-------------------------|------------------|
--7--7--7--5--5--5--5--0--|--2--2--2--3--3--3--3----|------------------|
--------------------------|-------------------------|------------------|


                                                                            
------------------|------------------|------------------|------------------|
------------------|------------------|------------------|------------------|
------------------|------------------|------------------|------------------|
------------------|------------------|------------------|------------------|


                                                                     
--------------------|---------------------------|-------------------|
--------------------|---------------------------|-------------------|
--------------------|---------------------------|-------------------|
------0--------0----|------0------0-0-10--10-10-|--0----------------|


                                                                               
------------------------|--------------------------|--------------------------|
------------------------|--------------------------|--------------------------|
------------------------|--------------------------|--------------------------|
--0/-------12--0--16/---|--0--0--0--7--7--7--7--5--|--5--5--5--5--5--5--5--5--|


                                                      
--------------------------|--------------------------|
--------------------------|--------------------------|
--------------------------|--------------------------|
--0--0--0--7--7--7--7--5--|--5--5--5--5--5--5--5--5--|


                                                      
--------------------------|--------------------------|
--------------------------|--------------------------|
--------------------------|--------------------------|
--0--0--0--7--7--7--7--5--|--5--5--5--5--5--5--5--5--|


                                                                             
--------------------------|--------------------------|----------------------|
--------------------------|--------------------------|----------------------|
--------------------------|--------------------------|--3--3--3----------2--|
--0--0--0--7--7--7--7--5--|--5--5--5--5--5--5--5--5--|----------------------|


                                                                     
---------------------|---------------------|------------------------|
---------------------|---------------------|------------------------|
----2--2----------5--|----0--0----------5--|----0--0-------0--0--2--|
---------------------|---------------------|----------3b------------|


                                                                   
----------------------|---------------------|---------------------|
----------------------|---------------------|---------------------|
--3--3--3----------2--|----2--2----------5--|----0--0----------5--|
----------------------|---------------------|---------------------|


                                                                               
------------------------|--------------------------|--------------------------|
------------------------|--------------------------|--------------------------|
----0--0-------0--0--2--|--2--2--2--3--3--3--3--3--|--5--5--5--7--7--7--7--0--|
----------3b------------|--------------------------|--------------------------|


                                                      
--------------------------|--------------------------|
--------------------------|--------------------------|
--2--2--2--3--3--3--3--3--|--7--7--7--5--5--5--5--0--|
--------------------------|--------------------------|


                                                      
--------------------------|--------------------------|
--------------------------|--------------------------|
--2--2--2--3--3--3--3--3--|--5--5--5--7--7--7--7--0--|
--------------------------|--------------------------|


                                                      
--------------------------|--------------------------|
--------------------------|--------------------------|
--2--2--2--3--3--3--3--3--|--7--7--7--5--5--5--5--0--|
--------------------------|--------------------------|


                                                      
--------------------------|--------------------------|
--------------------------|--------------------------|
--2--2--2--3--3--3--3--3--|--5--5--5--7--7--7--7--0--|
--------------------------|--------------------------|


                                                      
--------------------------|--------------------------|
--------------------------|--------------------------|
--2--2--2--3--3--3--3--3--|--7--7--7--5--5--5--5--0--|
--------------------------|--------------------------|


                                                      
--------------------------|--------------------------|
--------------------------|--------------------------|
--2--2--2--3--3--3--3--3--|--5--5--5--7--7--7--7--0--|
--------------------------|--------------------------|


                                                      
--------------------------|--------------------------|
--------------------------|--------------------------|
--2--2--2--3--3--3--3--3--|--7--7--7--5--5--5--5--0--|
--------------------------|--------------------------|


                                                      
--------------------------|--------------------------|
--------------------------|--------------------------|
--2--2--2--3--3--3--3--3--|--5--5--5--7--7--7--7--0--|
--------------------------|--------------------------|


                                                      
--------------------------|--------------------------|
--------------------------|--------------------------|
--2--2--2--3--3--3--3--3--|--7--7--7--5--5--5--5--0--|
--------------------------|--------------------------|


                                                      
--------------------------|--------------------------|
--------------------------|--------------------------|
--2--2--2--3--3--3--3--3--|--5--5--5--7--7--7--7--0--|
--------------------------|--------------------------|


                                                       
--------------------------|--------------------------||
--------------------------|--------------------------||
--2--2--2--3--3--3--3--3--|--7--7--7--5--5--5--5--0--||
--------------------------|--------------------------||
            
Submit corrections


        Photograph lessons Hard to play? Try these video lessons and learn fast Photograph lessons
        
↑ Back to top | Tablatures and chords for acoustic guitar and electric guitar, ukulele, drums are parodies/interpretations of the original songs. You may use it for private study, scholarship, research or language learning purposes only