» » »

Def Leppard - Now Tabs

Artists:  A B C D E F G H I J K L M N O P Q R S T U V W X Y Z # 

Now Tabs

(ver. 3) Click to play this song!
Def Leppard
 Rating:
4/5 (4 votes)

 Now lessons Tabs too difficult? Try these video lessons and learn fast
 
                tuning : standard


Intro: both the same                              Acoustic
Verse: both the same
Repeat as many times as played in song

1\ ----------------------------------------------------------------------------|
2\-----------------------------------------------------------------------------|
3\---9-9-9-9-9-9-9-9----7-7-7-7-7-7-7-7------------------------------------------------------|
4\---9-9-9-9-9-9-9-9----7-7-7-7-7-7-7-7------------------------------------------------------|
5\---7-7-7-7-7-7-7-7----5-5-5-5-5-5-5-5-------------------------------------------------------|
6\-----------------------------------------------------------------------------|

Electric
    
Bridge:

1\-------------------------------------------------------------------------------------------------|
2\-------------------------------------------------------------------------------------------------|
3\-------------------------------------------------------------------------------------------------|
4\--8-------------4---------------8------------------4-------------------------------------------|
5\--8-------------4---------------8------------------4--------------------------------------|
6\--6-------------2---------------6-------------------2------------------------------------------|

this is as far as I have got ….but this is a considerable amount of the song……..please listen and follow the strumming pattern
            
Submit corrections


        Now lessons Hard to play? Try these video lessons and learn fast Now lessons
        
↑ Back to top | Tablatures and chords for acoustic guitar and electric guitar, ukulele, drums are parodies/interpretations of the original songs. You may use it for private study, scholarship, research or language learning purposes only