» » »

Def Leppard - Now Tabs

Artists:  A B C D E F G H I J K L M N O P Q R S T U V W X Y Z # 

Now Tabs

(ver. 2) Click to play this song!
Def Leppard
 Rating:
4/5 (4 votes)

 Now lessons Tabs too difficult? Try these video lessons and learn fast
 
                def leppard
album x it just came out this week
song now

chords for intro
  0   0   0
  0   0   0
  9   7   5
  9   7   5
  7   5   3

   verse
--------------------------
--------------------------
--5-----5--7--------------
--5--2--5--7---------------
--3--2--3--5--------------
-----0---------------------
                 chorus
------------------------------------
------------------------------------
------------------------------------
--2-2-2-2-2-2--5-5-5-5-5-5------5---
--0-0-0-0-0-0--3-3-3-3-3-3------3---
-----------------------------1------
            
Submit corrections


        Now lessons Hard to play? Try these video lessons and learn fast Now lessons
        
↑ Back to top | Tablatures and chords for acoustic guitar and electric guitar, ukulele, drums are parodies/interpretations of the original songs. You may use it for private study, scholarship, research or language learning purposes only