» » »

Def Leppard - Lets Go Tabs

Artists:  A B C D E F G H I J K L M N O P Q R S T U V W X Y Z # 

Lets Go Tabs

(ver. 1) Click to play this song!
Def Leppard
 Rating:
3.3/5 (23 votes)

 Lets Go  lessons Tabs too difficult? Try these video lessons and learn fast
 
                Intro
e-----|
B-----|
G-----|
D--2--|
A--2--|
E--0--|


Main Riff
e--------------------------------------------------------------|
B--------------------------------------------------------------|
G--------2----4----2----2---2h4---------2----4----2----2\1-----|
D----2-4----4----4----4---4---------2-4----4----4----4------2--|
A--2------------------------------2----------------------------|
E--------------------------------------------------------------|
 | PM  |                         |  PM |

e-----------------------------------------------------------|
B-----------------------------------------------------------|
G--------2----4----2----2---2h4---------2----4--4p2---------|
D----2-4----4----4----4---4---------2-4----4----------------|
A--2------------------------------2------------------5v--2--|
E-----------------------------------------------------------|
 | PM  |                         |  PM |


Verse
e-------------------------|
B-------------------------|
G-------------------------|
D--2-2---2-2---2-2---2-2--|
A--2-2---2-2---2-2---2-2--|
E--0-0---0-0---0-0---0-0--|


               (half of main riff)
e--------------------------------------------------------------|
B--------------------------------------------------------------|
G--------2----4----2----2---2h4---------2----4----2----2\1-----|
D----2-4----4----4----4---4---------2-4----4----4----4------2--|
A--2------------------------------2----------------------------|
E--------------------------------------------------------------|
 | PM  |                         |  PM |

e-------------------------|
B-------------------------|
G-------------------------|
D--2-2---2-2---2-2---2-2--|
A--2-2---2-2---2-2---2-2--|
E--0-0---0-0---0-0---0-0--|


e--------------------------------------------------------------|
B--------------------------------------------------------------|
G--------2----4----2----2---2h4---------2----4----2----2\1-----|
D----2-4----4----4----4---4---------2-4----4----4----4------2--|
A--2------------------------------2----------------------------|
E--------------------------------------------------------------|
 | PM  |                         |  PM |


Pre Chorus
e-----------------------------------------------------|
B----------3--3----------------------------3--3-------|
G----------2--2----2--2----4--4------------2--2----2--|
D--5--5----0--0----2--2----4--4----5--5----0--0----2--|
A--5--5------------0--0----2--2----5--5------------0--|
E--3--3----------------------------3--3---------------|


Chorus
e------------------------------------------------------------|
B--3--3------------------------------------------------------|
G--2--2----2--2----4--4----2--2---------------------------2--|
D--0--0----2--2----4--4----2--2---5--5----4--4----5--5----2--|
A----------0--0----2--2----0--0---5--5----4--4----5--5----0--|
E---------------------------------3--3----2--2----3--3-------|


e--------------------------------------------------------|
B--3--3--------------------------------------------------|
G--2--2----2--2----4--4----2--2-----------------------2--|
D--0--0----2--2----4--4----2--2---5--5----4--4----5-4-2--|
A----------0--0----2--2----0--0---5--5----4--4----5-4-0--|
E---------------------------------3--3----2--2----3-2----|

 Whole Main Riff

Verse

Pre Chorus

Chorus
e------------------------------------------------------------|
B--3--3------------------------------------------------------|
G--2--2----2--2----4--4----2--2---------------------------2--|
D--0--0----2--2----4--4----2--2---5--5----4--4----5--5----2--|
A----------0--0----2--2----0--0---5--5----4--4----5--5----0--|
E---------------------------------3--3----2--2----3--3-------|


e-----------------------------------------------------------------|
B--3--3-----------------------------------------------------------|
G--2--2----2--2----4--4----2--2-----------------------2--------2--|
D--0--0----2--2----4--4----2--2---5--5----4--4----5-4-2----5-4-2--|
A----------0--0----2--2----0--0---5--5----4--4----5-4-0----5-4-0--|
E---------------------------------3--3----2--2----3-2------3-2----|

Solo
e-------------------------------------------12-14-15-15b17--|
B-------------------------------------15b17-----------------|
G--------------------------/13--14v-------------------------|
D--/9--/11==b13--/14--/16-----------------------------------|
A-----------------------------------------------------------|
E-----------------------------------------------------------|


e-----------------------------12b--12v--9b10--9v------|
B--------16-17----17-19b21------------------------12--|
G--16-18-------18-------------------------------------|
D-----------------------------------------------------|
A-----------------------------------------------------|
E-----------------------------------------------------|


e---------------------------------------------------------------12--|
B--10h12p10--9h10p9--7h9p7--5h7p5--3h5p3--2-------------------------|
G-----------------------------------------------11p9--11--11b=====--|
D-------------------------------------------------------------------|
A-------------------------------------------------------------------|
E-------------------------------------------------------------------|


e----------------------------------17b19--|
B----------------------9h10p9h10----------|
G-----------9h11p9h11---------------------|
D--9h11p9h11------------------------------|
A-----------------------------------------|
E-----------------------------------------|

Pre Chrous

Chorus X2

Main Riff            
Submit corrections


        Lets Go  lessons Hard to play? Try these video lessons and learn fast Lets Go  lessons
        
↑ Back to top | Tablatures and chords for acoustic guitar and electric guitar, ukulele, drums are parodies/interpretations of the original songs. You may use it for private study, scholarship, research or language learning purposes only