» » »

Def Leppard - Lets Go Tabs

Artists:  A B C D E F G H I J K L M N O P Q R S T U V W X Y Z # 

Lets Go Tabs

(ver. 2) Click to play this song!
Def Leppard
 Rating:
4.4/5 (5 votes)

 Lets Go lessons Tabs too difficult? Try these video lessons and learn fast
 
                [Intro]

eb|--0--------------------|
Bb|--0--------------------|
Gb|--1--------------------|
Db|--2--------------------|
Ab|--2--------------------|
Eb|--0--------------------|


[Main Riff]

eb|----------------------------------|---------------------------------|
Bb|----------------------------------|---------------------------------|
Gb|--------2-----4-----2-----2---2h4-|-------2-----4-----2-----2\1-----|
Db|----2-4-----4-----4-----4---4-----|---2-4-----4-----4-----4-----2---|
Ab|--2-------------------------------|-2-------------------------------|
Eb|----------------------------------|---------------------------------|
     PM***                             PM***

eb|----------------------------------|----------------------------|
Bb|----------------------------------|----------------------------|
Gb|--------2-----4-----2-----2---2h4-|-------2-----4---4p2--------|
Db|----2-4-----4-----4-----4---4-----|---2-4-----4----------------|
Ab|--2-------------------------------|-2-------------------5b--2--|
Eb|----------------------------------|----------------------------|
     PM***                             PM***



[Verse]

    play verse 2x

eb|-0---0------------0---0-----------|-0---0-----------0---0-----------|
Bb|-0---0------------0---0-----------|-0---0-----------0---0-----------|
Gb|-1---1------------1---1-----------|-1---1-----------1---1-----------|
Db|-2---2------------2---2-----------|-2---2-----------2---2-----------|
Ab|-2---2------------2---2-----------|-2---2-----------2---2-----------|
Eb|-0---0------------0---0-----------|-0---0-----------0---0-----------|

eb|----------------------------------|---------------------------------|
Bb|----------------------------------|---------------------------------|
Gb|--------2-----4-----2-----2---2h4-|-------2-----4-----2-----2\1-----|
Db|----2-4-----4-----4-----4---4-----|---2-4-----4-----4-----4-----2---|
Ab|--2-------------------------------|-2-------------------------------|
Eb|----------------------------------|---------------------------------|
     PM***                             PM***




[Pre Chorus]

eb|-----------------|-----------------|-----------------|---------------|
Bb|---------3--3----|-----------------|---------3--3----|---------------|
Gb|---------2--2----|-2--2----4--4----|---------2--2----|-2-------------|
Db|-5--5----0--0----|-2--2----4--4----|-5--5----0--0----|-2-------------|
Ab|-5--5------------|-0--0----2--2----|-5--5------------|-0-------------|
Eb|-3--3------------|-----------------|-3--3------------|---------------|



[Chorus]

    Rhythm Part
eb|------------------|-----------------|-----------------|----------------|
Bb|------------------|-----------------|-----------------|----------------|
Gb|--7--7------------|-4--4------------|-----------------|----------------|
Db|--7--7----7--7----|-4--4----7--7----|-5--5------------|-2--2----7------|
Ab|--5--5----4--4----|-2--2----7--7----|-5--5----5--5----|-2--2----7------|
Eb|------------------|---------5--5----|-3--3----2--2----|-0--0----5------|

eb|------------------|-----------------|-----------------|----------------|
Bb|------------------|-----------------|-----------------|----------------|
Gb|--7--7------------|-4--4------------|-----------------|----------------|
Db|--7--7----7--7----|-4--4----7--7----|-5--5------------|-5-------7------|
Ab|--5--5----4--4----|-2--2----7--7----|-5--5----5--5----|-5---5---7------|
Eb|------------------|---------5--5----|-3--3----2--2----|-3---2---5------|


    Lead Part - pick TP as sixteenths
eb|------------------|-----------------|-----------------|----------------|
Bb|-3TP--------------|-3TP-------------|-3TP-------------|-3TP-----5TP----|
Gb|------------------|-----------------|-----------------|----------------|
Db|------------------|-----------------|-----------------|----------------|
Ab|------------------|-----------------|-----------------|----------------|
Eb|------------------|-----------------|-----------------|----------------|

eb|------------------|-----------------|-----------------|----------------|
Bb|-3TP--------------|-3TP-------------|-3TP-------------|----------------|
Gb|------------------|-----------------|-----------------|----------------|
Db|------------------|-----------------|-----------------|-5-------7------|
Ab|------------------|-----------------|-----------------|-5---5---7------|
Eb|------------------|-----------------|-----------------|-3---2---5------|

  

[PreVerse]

eb|----------------------------------|---------------------------------|
Bb|----------------------------------|---------------------------------|
Gb|--------2-----4-----2-----2---2h4-|-------2-----4-----2-----2\1-----|
Db|----2-4-----4-----4-----4---4-----|---2-4-----4-----4-----4-----2---|
Ab|--2-------------------------------|-2-------------------------------|
Eb|----------------------------------|---------------------------------|
     PM***                             PM***

eb|----------------------------------|-----------------------------|
Bb|----------------------------------|-----------------------------|
Gb|--------2-----4-----2-----2---2h4-|-------2-----4---4p2---------|
Db|----2-4-----4-----4-----4---4-----|---2-4-----4-----------------|
Ab|--2-------------------------------|-2-------------------5b6--2--|
Eb|----------------------------------|-----------------------------|
     PM***                             PM***



[Verse 2]

    play verse 2x

eb|-0---0------------0---0-----------|-0---0-----------0---0-----------|
Bb|-0---0------------0---0-----------|-0---0-----------0---0-----------|
Gb|-1---1------------1---1-----------|-1---1-----------1---1-----------|
Db|-2---2------------2---2-----------|-2---2-----------2---2-----------|
Ab|-2---2------------2---2-----------|-2---2-----------2---2-----------|
Eb|-0---0------------0---0-----------|-0---0-----------0---0-----------|

eb|----------------------------------|---------------------------------|
Bb|----------------------------------|---------------------------------|
Gb|--------2-----4-----2-----2---2h4-|-------2-----4-----2-----2\1-----|
Db|----2-4-----4-----4-----4---4-----|---2-4-----4-----4-----4-----2---|
Ab|--2-------------------------------|-2-------------------------------|
Eb|----------------------------------|---------------------------------|
     PM***                             PM***


[Pre Chorus 2]

    Rhythm (same as before)
eb|-----------------|-----------------|-----------------|----------------|
Bb|---------3--3----|-----------------|---------3--3----|----------------|
Gb|---------2--2----|-2--2----4--4----|---------2--2----|-2--------------|
Db|-5--5----0--0----|-2--2----4--4----|-5--5----0--0----|-2--------------|
Ab|-5--5------------|-0--0----2--2----|-5--5------------|-0--------------|
Eb|-3--3------------|-----------------|-3--3------------|----------------|
  |
  | Guitar 2 (Lead?)
eb|-----------------|-----------------|-----------------|-9~-------------|
Bb|-----10------10~-|---10-------10~--|-----10------10~-|----------------|
Gb|---7----7-----7~-|-6----6------7~--|---7----7-----7~-|-9~-------------|
Db|-----------------|-----------------|-----------------|----------------|
Ab|-----------------|-----------------|-----------------|----------------|
Eb|-----------------|-----------------|-----------------|----------------|



[Chorus 2]

    Rhythm Part
eb|------------------|-----------------|-----------------|----------------|
Bb|------------------|-----------------|-----------------|----------------|
Gb|--7--7------------|-4--4------------|-----------------|----------------|
Db|--7--7----7--7----|-4--4----7--7----|-5--5------------|-2--2----7------|
Ab|--5--5----4--4----|-2--2----7--7----|-5--5----5--5----|-2--2----7------|
Eb|------------------|---------5--5----|-3--3----2--2----|-0--0----5------|

eb|------------------|-----------------|-----------------|----------------------|
Bb|------------------|-----------------|-----------------|----------------------|
Gb|--7--7------------|-4--4------------|-----------------|----------------------|
Db|--7--7----7--7----|-4--4----7--7----|-5--5------------|-5---------7----------|
Ab|--5--5----4--4----|-2--2----7--7----|-5--5----5--5----|-5----5----7----------|
Eb|------------------|---------5--5----|-3--3----2--2----|-3----2----5--3--2--0-|


    Lead Part - pick TP as sixteenths
eb|------------------|-----------------|-----------------|----------------|
Bb|-3TP--------------|-3TP-------------|-3TP-------------|-3TP-----5TP----|
Gb|------------------|-----------------|-----------------|----------------|
Db|------------------|-----------------|-----------------|----------------|
Ab|------------------|-----------------|-----------------|----------------|
Eb|------------------|-----------------|-----------------|----------------|

eb|------------------|-----------------|-----------------|----------------------|
Bb|-3TP--------------|-3TP-------------|-3TP-------------|----------------------|
Gb|------------------|-----------------|-----------------|----------------------|
Db|------------------|-----------------|-----------------|-5---------7----------|
Ab|------------------|-----------------|-----------------|-5----5----7----------|
Eb|------------------|-----------------|-----------------|-3----2----5--3--2--0-|



[Chorus 2 Ending]
 
    Rhythm
eb|----------------------------|--------------------------|------------------|
Bb|----------------------------|--------------------------|-3----------------|
Gb|-----7----------------------|--------------------------|-2----------------|
Db|-5---7---7------------------|-5---------7--------------|-0----------------|
Ab|-5---5---7------------------|-5----5----7--------------|-0----------------|
Eb|-3-------5---3----2----0----|-3----2----5---3---2---0--|------------------|
  |
  | Lead                         2 guitars
eb|----------------------------|--------------------------|------------------|
Bb|----------------------------|-12---10---12b14~~--------|------------------|
Gb|--------------------9-11-12-|-12---11---12b14~~--------|------------------|
Db|-------------9-11-12--------|--------------------------|------------------|
Ab|----------------------------|--------------------------|------------------|
Eb|----------------------------|--------------------------|------------------|


[Acoustic Bridge]

    Strum the chords that are indicated in each bar
 
eb|-10------------|-9------------|-5------------|-7------------|
Bb|-10------------|-10-----------|-6------------|-8------------|
Gb|-11------------|-9------------|-5------------|-7------------|
Db|-12------------|-11-----------|-7------------|-9------------|
Ab|---------------|--------------|--------------|--------------|
Eb|---------------|--------------|--------------|--------------|


eb|-10------------|-9------------|-5------------|--------------|
Bb|-10------------|-10-----------|-6------------|--------------|
Gb|-11------------|-9------------|-5------------|--R-----------|
Db|-12------------|-11-----------|-7------------|--------------|
Ab|---------------|--------------|--------------|--------------|
Eb|---------------|--------------|--------------|--------------|



[Double Guitar Solo]
 
    Phil
eb|---------------------|-----------------------|--------12-14-15-15b17~~\------0--|
Bb|----------------5~~--|-7----9---/12~---------|-15b17~~-----------------------0--|
Gb|--4----6___b8--------|-----------------------|----------------------------------|
Db|---------------------|-----------------------|----------------------------------|
Ab|---------------------|-----------------------|----------------------------------|
Eb|---------------------|-----------------------|----------------------------------|


    Phil
eb|-----------------------------|-----------------------------|
Bb|-------16-17----17-19b21-----|-----------------------------|
Gb|-16-18-------18--------------|-----------------------------|
Db|-----------------------------|-----------------------------|
Ab|-----------------------------|-----------------------------|
Eb|-----------------------------|-----------------------------|
  |
  | Vivian
eb|-----------------------------|-----------------------------|
Bb|-------------------15b17-----|-16b17--16~~---14-----12-----|
Gb|----13-14-16-13-16-----------|-----------------------------|
Db|-14--------------------------|-----------------------------|
Ab|-----------------------------|-----------------------------|
Eb|-----------------------------|-----------------------------|


    Vivian (legato)
eb|--------------------------------------------------|--------------------------12--|
Bb|--10h12p10--9h10p9--7h9p7--5h7p5--3h5p3--2--------|------------------------------|
Gb|--------------------------------------------------|---------9s-11s--11gb13-------|
Db|--------------------------------------------------|-11p9h11----------------------|
Ab|--------------------------------------------------|------------------------------|
Eb|--------------------------------------------------|------------------------------|
     
    Vivian
eb|------------------------------------|
Bb|------------------9tr10----15b17----|
Gb|----------9tr11---------------------|
Db|--11tr13----------------------------|
Ab|------------------------------------|
Eb|------------------------------------|
  |
  | Phil
eb|---------------------------17b19----|
Bb|----------9tr10---12tr14------------|
Gb|--9tr11-----------------------------|
Db|------------------------------------|
Ab|------------------------------------|
Eb|------------------------------------|



[Solo Rhythm]

eb|-------------------|-------------------|-------------------|-------------------|
Bb|-------------------|-------------------|-------------------|-------------------|
Gb|-------------------|-------------------|-9--9-----9--9-----|-9--9-----9--9-----|  play 2x
Db|-9--9-----9--9-----|-9--9-----9--9-----|-9--9-----9--9-----|-9--9-----9--9-----|
Ab|-9--9-----9--9-----|-9--9-----9--9-----|-7--7-----7--7-----|-7--7-----7--7-----|
Eb|-7--7-----7--7-----|-7--7-----7--7-----|-------------------|-------------------|



[Final Pre Chorus]

    Rhythm
eb|-----------------|-----------------|-----------------|----------------|
Bb|---------3--3----|-----------------|---------3--3----|----------------|
Gb|---------2--2----|-2--2----4--4----|---------2--2----|-2--------------|
Db|-5--5----0--0----|-2--2----4--4----|-5--5----0--0----|-2--------------|
Ab|-5--5------------|-0--0----2--2----|-5--5------------|-0--------------|
Eb|-3--3------------|-----------------|-3--3------------|----------------|
  |
  | Guitar 2 (Lead?)
eb|-----------------|-----------------|-----------------|-9~-------------|
Bb|-----10------10~-|---10-------10~--|-----10------10~-|----------------|
Gb|---7----7-----7~-|-6----6------7~--|---7----7-----7~-|-9~-------------|
Db|-----------------|-----------------|-----------------|----------------|
Ab|-----------------|-----------------|-----------------|----------------|
Eb|-----------------|-----------------|-----------------|----------------|



[Final Chorus]
  
    Rhythm Part
eb|------------------|-----------------|-----------------|----------------|
Bb|------------------|-----------------|-----------------|----------------|
Gb|--7--7------------|-4--4------------|-----------------|----------------|
Db|--7--7----7--7----|-4--4----7--7----|-5--5------------|-2--2----7------|  play this 
Ab|--5--5----4--4----|-2--2----7--7----|-5--5----5--5----|-2--2----7------|  line 3x
Eb|------------------|---------5--5----|-3--3----2--2----|-0--0----5------|

eb|------------------|-----------------|-----------------|----------------|
Bb|------------------|-----------------|-----------------|----------------|
Gb|--7--7------------|-4--4------------|-----------------|----------------|
Db|--7--7----7--7----|-4--4----7--7----|-5--5------------|-5-------7------|
Ab|--5--5----4--4----|-2--2----7--7----|-5--5----5--5----|-5---5---7------|
Eb|------------------|---------5--5----|-3--3----2--2----|-3---2---5------|


    Lead Part - pick TP as sixteenths
eb|------------------|-----------------|-----------------|----------------|
Bb|-3TP--------------|-3TP-------------|-3TP-------------|-3TP-----5TP----|
Gb|------------------|-----------------|-----------------|----------------|  play this 
Db|------------------|-----------------|-----------------|----------------|  line 3x
Ab|------------------|-----------------|-----------------|----------------|
Eb|------------------|-----------------|-----------------|----------------|

eb|------------------|-----------------|-----------------|----------------|
Bb|-3TP--------------|-3TP-------------|-3TP-------------|----------------|
Gb|------------------|-----------------|-----------------|----------------|
Db|------------------|-----------------|-----------------|-5-------7------|
Ab|------------------|-----------------|-----------------|-5---5---7------|
Eb|------------------|-----------------|-----------------|-3---2---5------|



[Outro]

eb|----------------------------------|---------------------------------|
Bb|----------------------------------|---------------------------------|
Gb|--------2-----4-----2-----2---2h4-|-------2-----4-----2-----2\1-----|
Db|----2-4-----4-----4-----4---4-----|---2-4-----4-----4-----4-----2---|
Ab|--2-------------------------------|-2-------------------------------|
Eb|----------------------------------|---------------------------------|
     PM***                             PM***

eb|----------------------------------|----------------------------|
Bb|----------------------------------|----------------------------|
Gb|--------2-----4-----2-----2---2h4-|-------2-----4---4p2--------|
Db|----2-4-----4-----4-----4---4-----|---2-4-----4----------------|
Ab|--2-------------------------------|-2-------------------5b--2--|
Eb|----------------------------------|----------------------------|
     PM***                             PM***            
Submit corrections


        Lets Go lessons Hard to play? Try these video lessons and learn fast Lets Go lessons
        
↑ Back to top | Tablatures and chords for acoustic guitar and electric guitar, ukulele, drums are parodies/interpretations of the original songs. You may use it for private study, scholarship, research or language learning purposes only