» » »

Bryan Adams - Heaven Bass

Artists:  A B C D E F G H I J K L M N O P Q R S T U V W X Y Z # 

Heaven Bass

(ver. 2) Click to play this song!
Bryan Adams
 Rating:
4/5 (4 votes)

 Heaven lessons Tabs too difficult? Try these video lessons and learn fast
 
                Intro:
G----------------------------------------------|
D----------------------------------------------|
A---3~------------------3~---------------------|
E-----0-3-5~--3~--1~------0-3-5~--3~--0-1~-----|

    Oh thinkin about all...
G-------------------------------------------|
D-------------------------------------------|
A---3~--------0-3-5~------------------------|
E------5~-3~---------5~-6~-6-8~-------------|

   Now nothin can take you....
G--------------------------------------------------|
D--------------------------------------------------|
A---3~--------------------3-5~---------------------|
E-----0-3-5~--3~3-3---3-5------5~-5-6~-5~--0-3~----|

CHorus:
   baby you're all that....
G--------------------------------------------|
D-------------------------------------5------|
A-----------0-2-3~------------------5--------|
E--1~-3~-5~--------1~---1~-3~-5~--3~---------|

   and love is all that....
G-----------------------------------------------|
D-----------------------------------------------|
A-----------0-2-3~-----------------------10-----|
E--1~-3~-5~--------1~---1~-3~-5~--3~--3/--------|

instrumental:
G------------------------|
D------------------------|
A---3~-------------------|
E------5~-3~-0-1~--------|

2nd verse:

    oh once in your life....
G-------------------------------------------|
D-------------------------------------------|
A---3~-----------------0-3-5~---------------|
E------0-3-5~--3~-3-3~--------5~-6~-3~------|

    ya nothing could change...
G---------------------------------------------------------|
D---------------------------------------------------------|
A---3~--------------------3-5-7/12~-13~-13-12~-10~\-------|
E------3-5~--3~-3-3~--3-5---------------------------3-----|

CHorus:
   baby you're all that....
G--------------------------------------------|
D--------------------------------------------|
A-----------0-2-3~---------------------------|
E--1~-3~-5~--------1~---1~-3~-5~--3~---------|

   and love is all that....
G-------------------------------------------------|
D------------------0-2-3~-------------------------|
A-----------0-2-3~--------------------------------|
E--1~-3~-5~---------------1~-3~-5~--3~--3-3-3~----|

Bridge:
    I've been waitin for...
G---------------------------------------------------|
D-----------------------------5~--------------------|
A---5-3-4-5~--5-5-7-8~--3~-33-----------------------|
E---------------------------------------------------|

    Now our dreams are...
G----------------------------------------|
D----------------------------------------|
A-----3-5~-5-5----------3~-3-------------|
E---5------------1~-1-3------3~-3333-----|

Adlib:
G--------------------------------------------|
D--------------------------------------------|
A-----------0-2-3~---------------------------|
E--1~-3~-5~--------1~---1~-3~-5~--3~---------|


G-------------------------------------------------|
D------------------0-2-3~-------------------------|
A-----------0-2-3~--------------------------------|
E--1~-3~-5~---------------1~-3~-5~--3~--3-3-3~----|

CHorus:
   baby you're all that....
G--------------------------------------------|
D-------------------------------------5------|
A-----------0-2-3~------------------5--------|
E--1~-3~-5~--------1~---1~-3~-5~--3~---------|

   and love is all that....
G-----------------------------------------------|
D-----------------------------------------------|
A-----------0-2-3~-----------------------10-----|
E--1~-3~-5~--------1~---1~-3~-5~--3~--3/--------|


If you have some comments, suggestions or violent reaction...
            
Submit corrections


        Heaven lessons Hard to play? Try these video lessons and learn fast Heaven lessons
        
↑ Back to top | Tablatures and chords for acoustic guitar and electric guitar, ukulele, drums are parodies/interpretations of the original songs. You may use it for private study, scholarship, research or language learning purposes only