» » »

Bryan Adams - Home Again Tabs

Artists:  A B C D E F G H I J K L M N O P Q R S T U V W X Y Z # 

Home Again Tabs

(ver. 1) Click to play this song!
Bryan Adams
 Rating:
4/5 (4 votes)

 Home Again lessons Tabs too difficult? Try these video lessons and learn fast
 
                [Intro]
e|---------------------------------------------------------------------------|
B|-----------8--7------------------------------------------------------------|
G|--5~------------7--7/9-----------------------------------------------------|
D|--5~-----------------------------------------------------------------------|
A|--3~-----------------------------------------------------------------------|
E|---------------------------------------------------------------------------|

e|---------------------------------------------------------------------------|
B|-------------8/10----------------------------------------------------------|
G|--5--7------------9~-------------------------------------------------------|
D|--5--7-------------------9p7p5--7--7---------------------------------------|
A|--3--5---------------------------------------------------------------------|
E|---------------------------------------------------------------------------|

[Verse]
e|---------------------------------------------------------------------------|
B|---------------------------------------------------------------------------|
G|--5------7-------------5---------------------------------------------------|
D|--5------7------2------5---------------------------------------------------| (2x) 
A|--3------5------2------3---------------------------------------------------|
E|----------------0----------------------------------------------------------|

e|---------------------------------------------------------------------------|
B|---------------------------------------------------------------------------|
G|--5------7-------------2---------------------------------------------------|
D|--5------7------2------2---------------------------------------------------|  
A|--3------5------2------0---------------------------------------------------|
E|----------------0----------------------------------------------------------|

e|---------------------------------------------------------------------------|
B|---------------------------------------------------------------------------|
G|-----------7---------------------------------------------------------------|
D|-----------7---------------------------------------------------------------|
A|--0--2--3--5---------------------------------------------------------------|
E|---------------------------------------------------------------------------|

Guitar nº 2 (End of 2nd time)
e|---------------------------------------------------------------------------|
B|-------------------------------8--7----------------------------------------|
G|------------------------------------7--9~----------------------------------|
D|---------------------------------------------------------------------------|
A|---------------------------------------------------------------------------|
E|---------------------------------------------------------------------------|

[Chorus]
e|---------------------------------------------------------------------------|
B|---------------------------------------------------------------------------|
G|-----5---------7-----------------------------------------------------------|
D|--5--5------7--7-----------------------------------------------------------| (3x)
A|--5--3------7--5-----------------------------------------------------------|
E|--3---------5--------------------------------------------------------------|

e|---------------------------------------------------------------------------|
B|---------------------------------------------------------------------------|
G|--5~-----------------------------------------------------------------------|
D|--5~-----------------------------------------------------------------------|
A|--3~-----------------------------------------------------------------------|
E|---------------------------------------------------------------------------|

[Instrumental]
e|-----------------------------|--7------------------------------------------|
B|-----------------------------|--10b12br10--10--8h10------------------------|
G|-----------------------------|----------------------9~---------------------|
D|--5/7--7h9--7--7--5--7-------|---------------------------------------------|
A|-----------------------7--7--|---------------------------------------------|
E|-----------------------------|---------------------------------------------|

[Verse]
e|---------------------------------------------------------------------------|
B|---------------------------------------------------------------------------|
G|--5------7-------------5---------------------------------------------------|
D|--5------7------2------5---------------------------------------------------| (2x) 
A|--3------5------2------3---------------------------------------------------|
E|----------------0----------------------------------------------------------|


e|---------------------------------------------------------------------------|
B|---------------------------------------------------------------------------|
G|--5------7-------------2---------------------------------------------------|
D|--5------7------2------2---------------------------------------------------|  
A|--3------5------2------0---------------------------------------------------|
E|----------------0----------------------------------------------------------|

e|---------------------------------------------------------------------------|
B|---------------------------------------------------------------------------|
G|-----------7---------------------------------------------------------------|
D|-----------7---------------------------------------------------------------|
A|--0--2--3--5---------------------------------------------------------------|
E|---------------------------------------------------------------------------|

Guitar nº 2
1st time
e|--------------------------10b12~-------------------------------------------|
B|---------------------------------------------------------------------------|
G|---------------------------------------------------------------------------|
D|---------------------------------------------------------------------------|
A|---------------------------------------------------------------------------|
E|---------------------------------------------------------------------------|
2nd time
e|---------------------------------------------------------------------------|
B|-------------------------------8--7----------------------------------------|
G|------------------------------------7--9~----------------------------------|
D|---------------------------------------------------------------------------|
A|---------------------------------------------------------------------------|
E|---------------------------------------------------------------------------|

[Chorus]
e|---------------------------------------------------------------------------|
B|---------------------------------------------------------------------------|
G|-----5---------7-----------------------------------------------------------|
D|--5--5------7--7-----------------------------------------------------------| (3x)
A|--5--3------7--5-----------------------------------------------------------|
E|--3---------5--------------------------------------------------------------|

e|---------------------------------------------------------------------------|
B|---------------------------------------------------------------------------|
G|--5~-----------------------------------------------------------------------|
D|--5~-----------------------------------------------------------------------|
A|--3~-----------------------------------------------------------------------|
E|---------------------------------------------------------------------------|

Guitar nº 2
1st time
e|---------------------------------------------------------------------------|
B|---------------10b12~br10--8-----------------------------------------------|
G|---------------------------------------------------------------------------|
D|---------------------------------------------------------------------------|
A|---------------------------------------------------------------------------|
E|---------------------------------------------------------------------------|
2nd time
e|---------------------------------------------------------------------------|
B|---------------10b12br10p8---8---------------------------------------------|
G|---------------------------9---9--7---7h9--7-------------------------------|
D|------------------------------------9--------------------------------------|
A|---------------------------------------------------------------------------|
E|---------------------------------------------------------------------------|
3rd time
e|---------------------------------------------------------------------------|
B|-----------------------------8--7--7--8------------------------------------|
G|----------------------------------------7/9--------------------------------|
D|---------------------------------------------------------------------------|
A|---------------------------------------------------------------------------|
E|---------------------------------------------------------------------------|

[Bridge]
e|-----------|----------|----------|-----------------------------------------|
B|-----------|----------|----------|-----------------------------------------|
G|--4--------|--4-------|----------|--7----7---------------------------------|
D|--4-----2--|--4----2--|--5----3--|--7----7---------------------------------|
A|--2-----2--|--2----2--|--5----3--|--5----5---------------------------------|
E|--------0--|-------0--|--3----1--|-----------------------------------------|

[Solo]
e|-----------------|------------------------|--------------------------------|
B|--8---8----8--8--|--8--8--8---10b12--10---|--10b12br10--8--8---8b10--8-----|
G|----7---7--------|----------7-------------|------------------7-------------|
D|-----------------|------------------------|--------------------------------|
A|-----------------|------------------------|--------------------------------|
E|-----------------|------------------------|--------------------------------|

e|-----------------------|------------------------------|--------------------|
B|--8--8--8---10b12--10--|--10b12br10--10b13br10--8--8--|--10b13br10--10--10-|
G|----------7------------|------------------------------|--------------------|
D|-----------------------|------------------------------|--------------------|
A|-----------------------|------------------------------|--------------------|
E|-----------------------|------------------------------|--------------------|

e|------------------|------------------------12--15----12--14--15----15~-----|
B|--8--7--7--8------|---------------15----15--------15------------15---------|
G|-------------7/9--|--12----12--14----14------------------------------------|
D|------------------|-----14-------------------------------------------------|
A|------------------|--------------------------------------------------------|
E|------------------|--------------------------------------------------------|

[Chorus]
e|---------------------------------------------------------------------------|
B|---------------------------------------------------------------------------|
G|-----5---------7-----------------------------------------------------------|
D|--5--5------7--7-----------------------------------------------------------| (3x)
A|--5--3------7--5-----------------------------------------------------------|
E|--3---------5--------------------------------------------------------------|

e|---------------------------------------------------------------------------|
B|---------------------------------------------------------------------------|
G|--5~-----------------------------------------------------------------------|
D|--5~-----------------------------------------------------------------------|
A|--3~-----------------------------------------------------------------------|
E|---------------------------------------------------------------------------|

Guitar nº 2
e|-----------------------|---------------------------------------------------|
B|--10b12br10---8---8----|---------------------------------------------------|
G|------------9---9---9--|--9--7~--9-----------------------------------------|
D|-----------------------|---------------5--7--7b9br7--7b9br7--5~------------|
A|-----------------------|-------------7-------------------------------------|
E|-----------------------|---------------------------------------------------|

e|----------------|--------12------------------------------------------------|
B|----------------|--10b12----b12--b12br10--10~------------------------------|
G|----7--9--7h9~--|----------------------------------------------------------|
D|--9-------------|----------------------------------------------------------|
A|----------------|----------------------------------------------------------|
E|----------------|----------------------------------------------------------|

[Solo 2]
e|---------------12--12--12-|----12--14--15--14--15--17--15--17b19--17b19----|
B|--------15--15------------|-15---------------------------------------------|
G|--------------------------|------------------------------------------------|
D|--12/14-------------------|------------------------------------------------|
A|--------------------------|------------------------------------------------|
E|--------------------------|------------------------------------------------|

e|--17b19--17b19~--17b19~--|--17b20--17b19--17b19br17--15--17~---------------|
B|-------------------------|-------------------------------------------------|
G|-------------------------|-------------------------------------------------|
D|-------------------------|-------------------------------------------------|
A|-------------------------|-------------------------------------------------|
E|-------------------------|-------------------------------------------------|

e|--15--17----15----------|--------------------------------------------------|
B|---------15----17--15~--|--15b17br15--15b17--15b17br15--15----15-----------|
G|------------------------|---------------------------------16----14---------|
D|------------------------|------------------------------------------14--12~-|
A|------------------------|--------------------------------------------------|
E|------------------------|--------------------------------------------------|

e|--------12--12-------15----12----------------------------|--------12-------|
B|--10/12-----------12----12----12--15----12--------12-----|-----------12----|
G|---------------12--------------------14----14--12----12--|--14b16----------|
D|---------------------------------------------------------|-----------------|
A|---------------------------------------------------------|-----------------|
E|---------------------------------------------------------|-----------------|

e|---------------------------------------------------------------------------|
B|----------------------------8---7------------------------------------------|
G|--14b16br14p12--14~--5~-------------7----9~--------------------------------|
D|---------------------5~----------------------------------------------------|
A|---------------------3~----------------------------------------------------|
E|---------------------------------------------------------------------------|            
Submit corrections


        Home Again lessons Hard to play? Try these video lessons and learn fast Home Again lessons
        
↑ Back to top | Tablatures and chords for acoustic guitar and electric guitar, ukulele, drums are parodies/interpretations of the original songs. You may use it for private study, scholarship, research or language learning purposes only