» » »

Bryan Adams - Heaven Tabs

Artists:  A B C D E F G H I J K L M N O P Q R S T U V W X Y Z # 

Heaven Tabs

(ver. 1) Click to play this song!
Bryan Adams
 Rating:
4.3/5 (25 votes)

 Heaven lessons Tabs too difficult? Try these video lessons and learn fast
 
                 C              Am                      Gsus4        F          
e|--0-----0-----0-----0------------|--x-----0------1---0------------|
B|--1---3-------1---3--------------|--1---3--------1------3---------|
G|--0-----------2------------------|--0------------2----------------|
D|--2-----------2------------------|--0------------3----------------|
A|--3-----------0------------------|--x------------3----------------|
E|---------------------------------|--3-----------------------------|

    C           Am                      Gsus4        F
e|---------------------------------|--------------------------------|
B|--------------8------------------|--6----5------------------------|
G|--5------------------------------|-----------5--------------------|
D|---------------------------------|---------------7----------------|
A|---------------------------------|--------------------------------|
E|---------------------------------|--------------------------------|

Verse
    C           Am                      G
e|--0-----0-----0-----0------------|--3-----3-----3-----3-----------|
B|--1-----1-----1-----1------------|--3-----3-----3-----3-----------|
G|--0-----0-----2-----2------------|--0-----0-----0-----0-----------|
D|--2-----2-----2-----2------------|--0-----0-----0-----0-----------|
A|--3-----3-----0-----0------------|--2-----2-----2-----2-----------|
E|---------------------------------|--3-----3-----3-----3-----------|
        Oh, thinkin' about all our younger years        There was

   Dm           Am                      Bb          Gsus4 G
e|--1-----1-----0-----0------------|--1-----1-----3-----3-----------|
B|--3-----3-----1-----1------------|--3-----3-----1-----3-----------|
G|--2-----2-----2-----2------------|--3-----3-----0-----0-----------|
D|--0-----0-----2-----2------------|--3-----3-----0-----0-----------|
A|--------------0-----0------------|--1-----1-----x-----2-----------|
E|---------------------------------|--------------3-----3-----------|
        only you and me         We were young and wild and free

    C           Am                      G
e|--0-----0-----0-----0------------|--3-----3-----3-----3-----------|
B|--1-----1-----1-----1------------|--3-----3-----3-----3-----------|
G|--0-----0-----2-----2------------|--0-----0-----0-----0-----------|
D|--2-----2-----2-----2------------|--0-----0-----0-----0-----------|
A|--3-----3-----0-----0------------|--2-----2-----2-----2-----------|
E|---------------------------------|--3-----3-----3-----3-----------|
        Now nothin' can take you        away from me    We've been 

   Dm           Am                      Bb          Gsus4 
e|--1-----1-----0-----0------------|--1-----1-----3-----3-----------|
B|--3-----3-----1-----1------------|--3-----3-----1-----1-----------|
G|--2-----2-----2-----2------------|--3-----3-----0-----0-----------|
D|--0-----0-----2-----2------------|--3-----3-----0-----0-----------|
A|--------------0-----0------------|--1-----1-----x-----x-----------|
E|---------------------------------|--------------3-----3-----------|
  down that road before   But that's over now           You keep me

  
  G
e|--3-----3-----3------------------|
B|--3-----3-----3------------------|
G|--0-----0-----0------------------|
D|--0-----0-----0------------------|
A|--2-----2-----2------------------|
E|--3-----3-----3------------------|
  comin' back for more


Chorus
    F     G     Am                     C          F
e|--1-----3-----0------------------|--0-----------1-----------------|
B|--1-----3-----1------------------|--1-----------1-----------------|
G|--2-----0-----2------------------|--0-----------2-----------------|
D|--3-----0-----2------------------|--2-----------3-----------------|
A|--3-----2-----0------------------|--3-----------3-----------------|
E|--1-----3------------------------|--------------1-----------------|
  Baby, you're all that I want When you're lyin' here in my arms

   F     G     Am                      G
e|--1-----3-----0------------------|--3-----------------------------|
B|--1-----3-----1------------------|--3--------------b8r------------|
G|--2-----0-----2------------------|--0-----------------------------|
D|--3-----0-----2------------------|--0-----------------------------|
A|--3-----2-----0------------------|--2-----------------------------|
E|--1-----3------------------------|--3-----------------------------|
I'm findin' it hard to believe We're in heaven

    F     G     Am                     C          F
e|--1-----3-----0------------------|--0-----------1-----------------|
B|--1-----3-----1------------------|--1-----------1-----------------|
G|--2-----0-----2------------------|--0-----------2-----------------|
D|--3-----0-----2------------------|--2-----------3-----------------|
A|--3-----2-----0------------------|--3-----------3-----------------|
E|--1-----3------------------------|--------------1-----------------|
And love is all that I need And I found it there in your heart

   F     G     Am                      G
e|--1-----3-----0------------------|--3-----------------------------|
B|--1-----3-----1------------------|--3-----------------------------|
G|--2-----0-----2------------------|--0-----------------------------|
D|--3-----0-----2------------------|--0-----------------------------|
A|--3-----2-----0------------------|--2-----------------------------|
E|--1-----3------------------------|--3-----------------------------|
  It isn't too hard to see We're in heaven


    C           Am                      Gsus4        F          
e|--0-----0-----0-----0------------|--1---0--------1----------------|
B|--1---3-------1---3--------------|--1-------1----1----------------|
G|--0-----------2------------------|--0------------2----------------|
D|--2-----------2------------------|--0------------3----------------|
A|--3-----------0------------------|---------------3----------------|
E|---------------------------------|--------------------------------|


Verse 2
    C           Am                      G
e|--0-----0-----0-----0------------|--3-----3-----3-----3-----------|
B|--1-----1-----1-----1------------|--3-----3-----3-----3-----------|
G|--0-----0-----2-----2------------|--0-----0-----0-----0-----------|
D|--2-----2-----2-----2------------|--0-----0-----0-----0-----------|
A|--3-----3-----0-----0------------|--2-----2-----2-----2-----------|
E|---------------------------------|--3-----3-----3-----3-----------|
        Oh, once in your life you    find someone                       


   Dm           Am                      Bb          Gsus4 G
e|--1-----1-----0-----0------------|--1-----1-----3-----3-----------|
B|--3-----3-----1-----1------------|--3-----3-----1-----3-----------|
G|--2-----2-----2-----2------------|--3-----3-----0-----0-----------|
D|--0-----0-----2-----2------------|--3-----3-----0-----0-----------|
A|--------------0-----0------------|--1-----1-----x-----2-----------|
E|---------------------------------|--------------3-----3-----------|
turn your world around Who will Bring you up when you're feelin' down

    C           Am                      G
e|--0-----0-----0-----0------------|--3-----------------------------|
B|--1-----1-----1-----1------------|--0-----1-----3-----------------|
G|--0-----0-----2-----2------------|--0-----------------------------|
D|--2-----2-----2-----2------------|--0-----------------------------|
A|--3-----3-----0-----0------------|--2-----------------------------|
E|---------------------------------|--3-----------------------------|
Yeah, nothin' could change what you mean to me  Oh, there's  

 Dm             Am                      Bb          Gsus4 
e|--1-----1-----0-----0------------|--1-----1-----3-----3-----------|
B|--3-----3-----1-----1------------|--3-----3-----1-----1-----------|
G|--2-----2-----2-----2------------|--3-----3-----0-----0-----------|
D|--0-----0-----2-----2------------|--3-----3-----0-----0-----------|
A|--------------0-----0------------|--1-----1-----x-----x-----------|
E|---------------------------------|--------------3-----3-----------|
lots that I could say      But just hold me now         'Cause our

    G
e|--3-----3-----3------------------|
B|--3-----3-----3------------------|
G|--0-----0-----0------------------|
D|--0-----0-----0------------------|
A|--2-----2-----2------------------|
E|--3-----3-----3------------------|
love will light the way

Chorus 2
    F     G     Am                     C          F
e|--1-----3-----0------------------|--0-----------1-----------------|
B|--1-----3-----1------------------|--1-----------1-----------------|
G|--2-----0-----2------------------|--0-----------2-----------------|
D|--3-----0-----2------------------|--2-----------3-----------------|
A|--3-----2-----0------------------|--3-----------3-----------------|
E|--1-----3------------------------|--------------1-----------------|
And, baby, you're all   that I want When you're lyin' here in my arms


   F     G     Am                      G
e|--1-----3-----0------------------|--3-----7s3-2-------------------|
B|--1-----3-----1------------------|--3-----------3-----------------|
G|--2-----0-----2------------------|--0-----------------------------|
D|--3-----0-----2------------------|--0-----------------------------|
A|--3-----2-----0------------------|--2-----------------------------|
E|--1-----3------------------------|--3-----------------------------|
I'm findin' it hard to believe We're in heaven

    F     G     Am                     C          F
e|--1-----3-----0------------------|--0-----------1-----------------|
B|--1-----3-----1------------------|--1-----------1-----------------|
G|--2-----0-----2------------------|--0-----------2-----------------|
D|--3-----0-----2------------------|--2-----------3-----------------|
A|--3-----2-----0------------------|--3-----------3-----------------|
E|--1-----3------------------------|--------------1-----------------|
Yeah, love is all that I need And I found it there in your heart

   F     G     Am                      G
e|--1-----3-----0------------------|--3-----------7-----------------|
B|--1-----3-----1------------------|--3---------8-------------------|
G|--2-----0-----2------------------|--0-------7---------------------|
D|--3-----0-----2------------------|--0-----------------------------|
A|--3-----2-----0------------------|--2-----------------------------|
E|--1-----3------------------------|--3-----------------------------|
It isn't too hard to see We're in heaven

e|---------------------------------|
B|-----b12r--10--------------------|
G|---------------12----------------|
D|---------------------------------|
A|---------------------------------|
E|---------------------------------|

Middle Section
    Dm-3 beats        C6-1 beat         F-3 beats         G-1 beat              
e|--1-----------------0------------|--1-----------------3-----------|
B|--3-----------------0------------|--1-----------------3-----------|
G|--2-----------------0------------|--2-----------------0-----------|
D|--0-----------------2------------|--3-----------------0-----------|
A|--------------------3------------|--3-----------------2-----------|
E|--------------------0------------|--1-----------------3-----------|
I've been waitin' for so              long For somethin' to 

    Am-4 beats                          G-3 beats         C-1 beat
e|--0------------------------------|--3-----------------0-----------|
B|--1------------------------------|--3-----------------1-----------|
G|--2------------------------------|--0-----------------0-----------|
D|--2------------------------------|--0-----------------2-----------|
A|--0------------------------------|--2---------------0-3-----------|
E|---------------------------------|--3-----------------------------|
  Arrive For love to come along
    Dm-3 beats        C6-1 beat         F-4 beats                       
e|--1-----------------0------------|--1-----------------------------|
B|--3-----------------0------------|--1-----------------------------|
G|--2-----------------0------------|--2-----------------------------|
D|--0-----------------2------------|--3-----------------------------|
A|--------------------3------------|--3-----------------------------|
E|--------------------0------------|--1-----------------------------|
   Now our dreams are comin' true Through the good times and the bad

    C-4 beats                           Gsus4-2 beats G-2 beats
e|--0------------------------------|--3-------------3---------------|
B|--1------------------------------|--1-------------3----------5-8--|
G|--0------------------------------|--0-------------0---------------|
D|--2------------------------------|--0-------------0---------------|
A|--3------------------------------|--x-------------2---------------|
E|---------------------------------|--3-------------3---------------|
                          Yeah, I'll be standin' there by you


Solo – Over Chorus
e|---------------------------------|--------------------------------|
B|--b8-b8-b8r-5--------------------|--b8-8--------------------------|
G|--------------b7-----------------|--------b7r-5-------------------|
D|---------------------------------|---------------7----------------|
A|---------------------------------|--------------------------------|
E|---------------------------------|--------------------------------|

e|--------5------------b8-8--------|--7-----------------------------|
B|-----5------b8r-5----------------|----8-8-------------------------|
G|--b7-----------------------------|--------------------------------|
D|---------------------------------|--------------------------------|
A|---------------------------------|--------------------------------|
E|---------------------------------|--------------------------------|

            
Submit corrections


        Heaven lessons Hard to play? Try these video lessons and learn fast Heaven lessons
        
↑ Back to top | Tablatures and chords for acoustic guitar and electric guitar, ukulele, drums are parodies/interpretations of the original songs. You may use it for private study, scholarship, research or language learning purposes only