» » »

Bring Me The Horizon - Follow You Tabs

Artists:  A B C D E F G H I J K L M N O P Q R S T U V W X Y Z # 

Follow You Tabs

(ver. 3) Click to play this song!
Bring Me The Horizon
 Rating:
4.3/5 (10 votes)

 Follow You lessons Tabs too difficult? Try these video lessons and learn fast
 
                [Intro]

e|---------------------------------------------------------------------------|
B|------3--------------------------------------------------------------------|
G|--2-------2----------------------------------------------------------------|
D|---------------------------------------------------------------------------| (x8)
A|---------------------------------------------------------------------------|
E|---------------------------------------------------------------------------|




[Verse 1]

e|---------------------------------------------------------------------------|
B|----3----------3----1---------3-------------------3-----5------------------|
G|-2-----2---2-------------2---------2----0----2-----------------------------| (x4)
D|---------------------------------------------------------------------------|
A|---------------------------------------------------------------------------|
E|---------------------------------------------------------------------------|
My head is haunting me and my heart feels like a ghost
I need to feel something, cause I'm still so far from home
Cross your heart and hope to die
Promise me you'll never leave my side

Show me what I can't see when the spark in my eyes is gone
You got me on my knees, I'm your one man cult
Cross my heart and hope to die
Promise you I'll never leave your side


[Pre-Chorus]
Am F   G Am   
G C    G Am
Cause I'm telling you, you're all I need
I promise you you're all I see

e|-------------8----7--------------------------------------------------------|
B|----8-----------------8----------------------------------------------------|
G|9-------10-----------------------------------------------------------------| (x2)
D|---------------------------9-----------------------------------------------|
A|---------------------------------------------------------------------------|
E|---------------------------------------------------------------------------|
Cause I'm telling you, you're all I need
I'll never leave


[Chorus]

e|---------------------------------------------------------------------------|
B|----3----------3----1---------3------------------3-------5-----------------|
G|-2-----2---2-------------2--------2----0----2------------------------------| (x4)
D|---------------------------------------------------------------------------|
A|---------------------------------------------------------------------------|
E|---------------------------------------------------------------------------|
So you can drag me through Hell
If it meant I could hold your hand
I will follow you cause I'm under your spell
And you can throw me to the flames
I will follow you, I will follow you



[Verse 2]

e|-----------------0---------------------------------------------------------|
B|-----1-----3------------0------1h3-----------------------------------------|
G|-2-------------------------------------------------------------------------|
D|---------------------------------------------------------------------------|
A|---------------------------------------------------------------------------|
E|---------------------------------------------------------------------------|
Come sink into me and let me breathe you in
I'll be your gravity, you be my oxygen
So dig two graves cause when you die
I swear I'll be leaving by your side


[Chorus]

e|---------------------------------------------------------------------------|
B|-----3-----------3-----1--------3---------------3-----5--------------------|
G|-2-------2---2------------2---------2---0---2------------------------------|
D|---------------------------------------------------------------------------|
A|---------------------------------------------------------------------------|
E|---------------------------------------------------------------------------|
So you can drag me through Hell
If it meant I could hold your hand
I will follow you cause I'm under your spell
And you can throw me to the flames
I will follow you
So you can drag me through Hell
If it meant I could hold your hand
I will follow you cause I'm under your spell
And you can throw me to the flames
I will follow you, I will follow you
[Outro]

e|---------------------------------------------------------------------------|
B|3-----5--------------------------------3-----5-----------------------------|
G|-----------2------6-----2-----1-------------------2----6-------------------|
D|---------------------------------------------------------------------------|
A|---------------------------------------------------------------------------|
E|---------------------------------------------------------------------------|
I will follow you, I will follow you
So you can drag me through Hell

(Strum once) C F   Am G

If it meant I could hold your hand
I will follow you cause I'm under your spell
And you can throw me to the flames
I will follow you, I will follow you


            
Submit corrections


        Follow You lessons Hard to play? Try these video lessons and learn fast Follow You lessons
        
↑ Back to top | Tablatures and chords for acoustic guitar and electric guitar, ukulele, drums are parodies/interpretations of the original songs. You may use it for private study, scholarship, research or language learning purposes only