» » »

Bring Me The Horizon - Follow You Tabs

Artists:  A B C D E F G H I J K L M N O P Q R S T U V W X Y Z # 

Follow You Tabs

(ver. 2) Click to play this song!
Bring Me The Horizon
 Rating:
4.3/5 (22 votes)

 Follow You  lessons Tabs too difficult? Try these video lessons and learn fast
 
                 [Intro]
D#|---------------------------------------------------------------------------|
A#|---10----10-8---10------10/12----------------------------------------------|
F#|--9--9--9------9----7/9----------------------------------------------------|
C#|-------------------0-------------------------------------------------------|
G#|--------------7------------------------------------------------------------|
D#|-8-----8-------------------------------------------------------------------|

D#|---------------------------------------------------------------------------|
A#|---10----10-8---10---------------------------------------------------------|
F#|--9--9--9-----9----7h9h7--0h2h0--------------------------------------------|
C#|------------------0--------------------------------------------------------|
G#|-------------7-------------------------------------------------------------|
D#|-8-----8-------------------------------------------------------------------|

 [Verse]
D#|---------------------------------------------------------------------------|
A#|---------------------------------------------------------------------------|
F#|---------------------------------------------------------------------------|
C#|-0--2--4--5----------------------------------------------------------------|
G#|-2--3--5--7----------------------------------------------------------------|
D#|-0-------------------------------------------------------------------------|

 [Chorus]
D#|---------------------------------------------------------------------------|
A#|-0--0--0--0----------------------------------------------------------------|
F#|-0--0--0--0----------------------------------------------------------------|
C#|-0--2--5--4----------------------------------------------------------------|
G#|-2--3--7--5----------------------------------------------------------------|
D#|-0-------------------------------------------------------------------------|

 [Verse 2]
D#|------------------------------0---------------------------------------------|
A#|----------------------------3-----------------------------------------------|
F#|-0h2-4---0h2h4----0h2-4---0-------------------------------------------------|
C#|-------4-------2--------4---------------------------------------------------|
G#|----------------------------------------------------------------------------|
D#|----------------------------------------------------------------------------|

 Playing in bridge
D#|---------------------------------------------------------------------------|
A#|-10-12-------10-12---------------------------------------------------------|
F#|-------9-12~-------9-12-9--------------------------------------------------|
C#|---------------------------------------------------------------------------|
G#|---------------------------------------------------------------------------|
D#|---------------------------------------------------------------------------|            
Submit corrections


        Follow You  lessons Hard to play? Try these video lessons and learn fast Follow You  lessons
        
↑ Back to top | Tablatures and chords for acoustic guitar and electric guitar, ukulele, drums are parodies/interpretations of the original songs. You may use it for private study, scholarship, research or language learning purposes only