» » »

Bring Me The Horizon - Avalanche Tabs

Artists:  A B C D E F G H I J K L M N O P Q R S T U V W X Y Z # 

Avalanche Tabs

(ver. 1) Click to play this song!
Bring Me The Horizon
 Rating:
3/5 (25 votes)

 Avalanche  lessons Tabs too difficult? Try these video lessons and learn fast
 
                Кhythm guitar

(intro and chorus)
D|-------------------------|------------------------|-------------------------|
A|-------------------------|------------------------|-------------------------|
F|-------------------------|------------------------|-------------------------|
C|-3--3--3--3--3--3--3--3--|-3--3--3--3--3--5--5--5-|-7--7--7--7--7--7--7--7--|
G|-3--3--3--3--3--3--3--3--|-3--3--3--3--3--5--5--5-|-7--7--7--7--7--7--7--7--|
C|-3--3--3--3--3--3--3--3--|-3--3--3--3--3--5--5--5-|-7--7--7--7--7--7--7--7--|


D|----------------------------|-------------------------|-------------------------|
A|----------------------------|-------------------------|-------------------------|
F|----------------------------|-------------------------|-------------------------|
C|-7--7--7--7--7--10--10--10--|-5--5--5--5--5--5--5--5--|-5--5--5--5--5--5--5--5--|
G|-7--7--7--7--7--10--10--10--|-5--5--5--5--5--5--5--5--|-5--5--5--5--5--5--5--5--|
C|-7--7--7--7--7--10--10--10--|-5--5--5--5--5--5--5--5--|-5--5--5--5--5--5--5--5--|

D|-------------------------|-------------------------|
A|-------------------------|-------------------------|
F|-------------------------|-------------------------|
C|-0--0--0--0--0--0--0--0--|-2--2--2--2--2--2--2--2--| x2 
G|-0--0--0--0--0--0--0--0--|-2--2--2--2--2--2--2--2--|
C|-0--0--0--0--0--0--0--0--|-2--2--2--2--2--2--2--2--|


(post-chorus)

D|-------------------------|-------------------------|-------------------------|
A|-------------------------|-------------------------|-------------------------|
F|-------------------------|-------------------------|-------------------------|
C|-3--3--3--3--3--5--5--5--|-7--7--7--7--7--7--7--7--|-2--2--2--2--2--2--2--2--| x4
G|-3--3--3--3--3--5--5--5--|-7--7--7--7--7--7--7--7--|-2--2--2--2--2--2--2--2--|
C|-3--3--3--3--3--5--5--5--|-7--7--7--7--7--7--7--7--|-2--2--2--2--2--2--2--2--|


(just before last chorus)
D|---------------------------------|---------------------------------|
A|-12--12--12--12--12--12--12--12--|-13--13--13--13--13--13----------|
F|-12--12--12--12--12--12--12--12--|-12--12--12--12--12--12----------|
C|---------------------------------|---------------------------------|
G|---------------------------------|---------------------------------|
C|---------------------------------|---------------------------------|



Lead guitar

(repeat for verse and pre-chorus and bridge)

D|---------------------------------|---------------------------------|--------------------------|
A|-------------8-------------------|-------------8---5---------------|--------------------------|
F|-----9---------------9-------9---|-----9-------------------5---7---|-----------9--------------|
C|-7-------7-------7-------7-------|-7-------7-----------7-----------|-----10--------7----10--7-|
G|---------------------------------|---------------------------------|-8-------8--------8-------|
C|---------------------------------|---------------------------------|--------------------------|


D|---------------------------------|
A|---------------------------------|
F|-------------7---------7---7--9--|
C|-----7---------------------------| 
G|-5-------5-------5---5-----------|
C|---------------------------------|

            
Submit corrections


        Avalanche  lessons Hard to play? Try these video lessons and learn fast Avalanche  lessons
        
↑ Back to top | Tablatures and chords for acoustic guitar and electric guitar, ukulele, drums are parodies/interpretations of the original songs. You may use it for private study, scholarship, research or language learning purposes only