Home » B » Bring Me The Horizon »

Bring Me The Horizon - Happy Song Bass

Artists:  A B C D E F G H I J K L M N O P Q R S T U V W X Y Z # 

Happy Song Bass

(ver. 1) Click to play this song!
Bring Me The Horizon
Intro (0:11) x 2

D#|---------------------------------------------------------------------------|
A#|---------------------------------------------------------------------------|
F |---------------------------------------------------------------------------|
C |-6-0-0-0-10h12-0-0-0-3-0-0-0-6-0-0-0-10h12-0-0-0-3/5-5-5-------------------|

Rest

Verse 1 Part 2 (0:33) x 2

D#|---------------------------------------------------------------------------|
A#|---------------------------------------------------------------------------|
F |---------------------------------------------------------------------------|
C |-6-0-0-0-10h12-0-0-0-3-0-0-0-6-0-0-0-10h12-0-0-0-3/5-5-5-------------------|

Rest

Verse 1 Part 4 (0:55) x 2

D#|---------------------------------------------------------------------------|
A#|---------------------------------------------------------------------------|
F |---------------------------------------------------------------------------|
C |-6-0-0-0-10h12-0-0-0-3-0-0-0-6-0-0-0-10h12-0-0-0-3/5-5-5-------------------|

Chorus 1 x 2

D#|---------------------------------------------------------------------------|
A#|---------------------------------------------------------------------------|
F |---------------------------------------------------------------------------|
C |-8-8-8-8-8-10-10-0~--0-0-0-0-3-3-5~--5-5-5-5-3-3-5~--5-5-5-5-5-5-5---------|

Verse 2 Part 1 x 2

D#|---------------------------------------------------------------------------|
A#|---------------------------------------------------------------------------|
F |---------------------------------------------------------------------------|
C |-6-0-0-0-10h12-0-0-0-3-0-0-0-6-0-0-0-10h12-0-0-0-3/5-5-5-------------------|

Verse 2 Part 2

D#|---------------------------------------------------------------------------|
A#|---------------------------------------------------------------------------|
F |---------------------------------------------------------------------------|
C |-6-0-0-0-10h12-0-0-0-3-0-0-0-6-0-0-0-10h12-0-0-0-3/5-5-5-------------------|

D#|---------------------------------------------------------------------------|
A#|---------------------------------------------------------------------------|
F |---------------------------------------------------------------------------|
C |-6-0-0-0-10h12-0-0-0-3-0-0-0-6-0-0-0-10h12-0-0-0---------------------------|

Verse 2 Part 3 x2

D#|---------------------------------------------------------------------------|
A#|---------------------------------------------------------------------------|
F |---------------------------------------------------------------------------|
C |-6-0-0-0-10h12-0-0-0-3-0-0-0-6-0-0-0-10h12-0-0-0-3/5-5-5-------------------|

Chorus 2 x 4

D#|---------------------------------------------------------------------------|
A#|---------------------------------------------------------------------------|
F |---------------------------------------------------------------------------|
C |-8-8-8-8-8-10-10-0~--0-0-0-0-3-3-5~--5-5-5-5-3-3-5~--5-5-5-5-5-5-5---------|

Rest

Outro (3:20)

D#|---------------------------------------------------------------------------|
A#|---------------------------------------------------------------------------|
F |---------------------------------------------------------------------------|
C |-0--0--0-0-0-0-15-15-0-0-0-15-0-0-0-15-0-0-12-13-12-10---------------------|

D#|---------------------------------------------------------------------------|
A#|---------------------------------------------------------------------------|
F |---------------------------------------------------------------------------|
C |-0--0--0-0-0-0-15-15-0-0-0-15-0-0-0-15-0-0-15-15-15-15---------------------|

D#|---------------------------------------------------------------------------|
A#|---------------------------------------------------------------------------|
F |---------------------------------------------------------------------------|
C |-0-0--0-0--0-0--0-0-15-0-0-0-15-0-0-0-15-0-0-12-13-12-10-------------------|

D#|-------------------------------------------------------------------------------|
A#|-------------------------------------------------------------------------------|
F |-------------------------------------------------------------------------------|
C |-0-0--0-0--0-0--0-0-15-0-0-0-15-0-0-0-15-0-0-15-15-15-15--15-15-15-15--15~--15~|            
Submit corrections

↑ Back to top | Tablatures and chords for acoustic guitar and electric guitar, ukulele, drums are parodies/interpretations of the original songs. You may use it for private study, scholarship, research or language learning purposes only