» » »

Bring Me The Horizon - Follow You Tabs

Artists:  A B C D E F G H I J K L M N O P Q R S T U V W X Y Z # 

Follow You Tabs

(ver. 1) Click to play this song!
Bring Me The Horizon
 Rating:
3.4/5 (26 votes)

 Follow You  lessons Tabs too difficult? Try these video lessons and learn fast
 
                Intro

----------|
----10----|
--9----9--|
----------| x8
----------|
----------|

Verse

-----------------------------------------------------------------------|
----10------10-8----10-------10h12-----10------10-8----10--------------|
--9----9--9-------9----9-7h9---------9----9--9-------9----9-7h9p7------|
------------------------------------------------------------------5h7--| x4
-----------------------------------------------------------------------|
-----------------------------------------------------------------------|

Pre Chorus

Guitar 1

----------------------------|
----------------------------|
----------------------------|
--0--2---4--5--7--9---4--5--| x2
--2--3---5--7--9--10--5--7--|
----------------------------|

Guitar 2 (Starts second time through Guitar 1's part)

----------<12>---------------<12>---------|
--<7>---------------<7>-------------------|
------<7>------<5>------<7>---------|
------------------------------------------------------| x2
------------------------------------------------------|
------------------------------------------------------|

Chorus

Guitar 1

-----------------------------------------------------------------------|
----10------10-8----10-------10h12-----10------10-8----10--------------|
--9----9--9-------9----9-7h9---------9----9--9-------9----9-7h9p7------|
------------------------------------------------------------------5h7--| x4
-----------------------------------------------------------------------|
-----------------------------------------------------------------------|

Guitar 2

Bm C Em D x4

After Chorus

-------------------------------|
-------------------------------|
-------------------------------|
--5-7-9--4-5-7---5-7-9--4-5-7--|
---------------7---------------|

Verse 2

Guitar 1

-------------------|
-------------------|
-------------------| x4
-----5-7-9--4-5-7--|
--7----------------|
-------------------|

Guitar 2

-------------------------|
---------10-12-------10--|
--9---12-------11-12-----|
-------------------------| x4
-------------------------|
-------------------------|

Chorus 2

Guitar 1

-----------------------------------------------------------------------|
----10------10-8----10-------10h12-----10------10-8----10--------------|
--9----9--9-------9----9-7h9---------9----9--9-------9----9-7h9p7------|
------------------------------------------------------------------5h7--| x8
-----------------------------------------------------------------------|
-----------------------------------------------------------------------|

Guitar 2

Bm C Em D x8

"I Will Follow You"

Guitar 1

-------------------------------|
--10h12-------10h12------------|
--------9h12--------9h12--9p7--|
-------------------------------| x4
-------------------------------|
-------------------------------|

Guitar 2

Bm C Em D x4

End

Guitar 1

Bm C Em D x2

-------------------------------|
--10h12-------10h12------------|
--------9h12--------9h12--9p7--|
-------------------------------| x2
-------------------------------|
-------------------------------|

Guitar 2

Bm C Em D x4            
Submit corrections


        Follow You  lessons Hard to play? Try these video lessons and learn fast Follow You  lessons
        
↑ Back to top | Tablatures and chords for acoustic guitar and electric guitar, ukulele, drums are parodies/interpretations of the original songs. You may use it for private study, scholarship, research or language learning purposes only