Home » B » Bring Me The Horizon »

Bring Me The Horizon - Chelsea Smile Bass

Artists:  A B C D E F G H I J K L M N O P Q R S T U V W X Y Z # 

Chelsea Smile Bass

(ver. 1) Click to play this song!
Bring Me The Horizon
 Rating:
4/5 (4 votes)
                Tuning: Drop Bb
This Song Is Usually Played With A Pick, But You Can Use Fingers If You Want To... 
A Pick Will Get The Best Sound...

Key:
~ = Hold Note


Intro Part:

Eb|-----------------------------------------------------------------|
Bb|-----------------------------------------------------------------|
F |-53----3-------------------------53-----3----3-----53-56-----6---|
Bb|-----0-----0-0-0---0-0---0-0-0-0-----0-----0---0-----------0---0-|

Eb|-----------------------------------|
Bb|-----------------------------------|
F |-53----3-------------------------5~|
Bb|-----0-----0-0-0---0-0---0-0-0-0---|

Thrashy Part:

Eb|---------------------------------------------------------|
Bb|---------------------------------------------------------|
F |---------------------------------------------------------|
Bb|-0-0-0-0--0-0-0--0000-0000-0--0-0-0-0000-0-0000-0-0-0000-|

Eb|---------------------------------------------------------|
Bb|---------------------------------------------------------|
F |-------------------------------6~~3----------------------|
Bb|-0-0-0-0--0-0-0--0000-0000---0---------------------------|

First Verse:

Eb|---5-----------------------------|
Bb|-------0-------------------------|
F |-6---6---------------------------|
Bb|-----------0-0-0---0-0-0---0-0-0-|

Eb|---5-------------------8---------|
Bb|-------0-------------------------|
F |-6---6-------------------65------|
Bb|---------0-0-0---0-0-0-------0---|

Eb|---5-----------------------------|
Bb|-------0-------------------------|
F |-6---6---------------------------|
Bb|-----------0-0-0---0-0-0---0-0-0-|

Eb|---5---------------8-------------|
Bb|---------------------------------|
F |-6---6-6~--6-6-6-6---6-9~--9-9-9-|
Bb|---------------------------------|

   --- x2 ---

"This Disease"

Eb|---------------------------------|
Bb|---------------------------------|
F |-5-(x16)-1-(x16)-----------------|
Bb|-----------------5-(x16)-7-(x16)-|



"The only thing I really know"
Eb|---------------------------------------------------------------|
Bb|---------------------------------------------------------------|
F |-------------------------------------3---35---------3---35-----|
Bb|8---8---8-8~----5--05-057------0---0---0----0-0---0---0----0-8-|

Eb|---------------------------------------------------------------|
Bb|---------------------------------------------------------------|
F |---------------------------------------------------------------|
Bb|-----8---8-8~----5--05-057---0~~~~~~~------------------------8-|

Eb|-------------------------------------------------------------|
Bb|-------------------------------------------------------------|
F |-----------------------------------3---35---------3---35-----|
Bb|-8---8---8-8~----5--05-057---0---0---0----0--0--0---0----0-8-|

Eb|-------------------------------|
Bb|-------------------------------|
F |-------------------------------|
Bb|-8---8---8-8~----5--05-057-7-7-|


Thrashy Part:

Eb|---------------------------------------------------------|
Bb|---------------------------------------------------------|
F |---------------------------------------------------------|
Bb|-0-0-0-0--0-0-0--0000-0000-0--0-0-0-0000-0-0000-0-0-0000-|

Eb|---------------------------------------------------------|
Bb|---------------------------------------------------------|
F |-------------------------------6~~3----------------------|
Bb|-0-0-0-0--0-0-0--0000-0000---0---------------------------|


Second Verse:

Eb|---5-----------------------------|
Bb|-------0-------------------------|
F |-6---6---------------------------|
Bb|-----------0-0-0---0-0-0---0-0-0-|

Eb|---5-------------------8---------|
Bb|-------0-------------------------|
F |-6---6-------------------65------|
Bb|---------0-0-0---0-0-0-------0---|

Eb|---5-----------------------------|
Bb|-------0-------------------------|
F |-6---6---------------------------|
Bb|-----------0-0-0---0-0-0---0-0-0-|

Eb|---5---------------8-------------|
Bb|---------------------------------|
F |-6---6-6~--6-6-6-6---6-9~--9-9-9-|
Bb|---------------------------------|

   --- x2 ---


Breakdown:

Rest 4 Bars Then
Eb|-------------------|
Bb|-------------------|
F |-------------------|
Bb|-1-00---4-----1-00-|

   


Resume Song After Breakdown:

Eb|-------------------------------|
Bb|-------------------------------|
F |-1-(x16)-3-(x16)----5-(x16)----|
Bb|-------------------------------|

   --- x2 ---


No Bass until 4:14

Thrashy Part:

Eb|---------------------------------------------------------|
Bb|---------------------------------------------------------|
F |---------------------------------------------------------|
Bb|-0-0-0-0--0-0-0--0000-0000-0--0-0-0-0000-0-0000-0-0-0000-|

Eb|---------------------------------------------------------|
Bb|---------------------------------------------------------|
F |-------------------------------6~~3----------------------|
Bb|-0-0-0-0--0-0-0--0000-0000---0---------------------------|



"I've got a secret.."

Eb|---|
Bb|---|
F |---|
Bb|---|        Rest For 6 Bars


"I know something you don't know"
Eb|-----------------------------------|
Bb|-----------------------------------|
F |-53----3-------------------------5~|
Bb|-----0-----0-0-0---0-0---0-0-0-0---|

Intro Riff:

Eb|-----------------------------------------------------------------|
Bb|-----------------------------------------------------------------|
F |-53----3-------------------------53-----3----3-----53-56-----6---|
Bb|-----0-----0-0-0---0-0---0-0-0-0-----0-----0---0-----------0---0-|

Eb|-----------------------------------|
Bb|-----------------------------------|
F |-53----3-------------------------5~|
Bb|-----0-----0-0-0---0-0---0-0-0-0---|

I KNOW SOMETHING YOU WILL NEVER KNOW!!!!

Eb|-----------------------------------------------------------------|
Bb|-----------------------------------------------------------------|
F |-53----3-------------------------53-----3----3-----53-56-----6---|
Bb|-----0-----0-0-0---0-0---0-0-0-0-----0-----0---0-----------0---0-|

Eb|----------------------------------------------------------|
Bb|----------------------------------------------------------|
F |-53----3--------------------------------------------------|
Bb|-----0-----0-0-0---0-0---0-0-0-0------------------------0-|



Feel Free to Comment. Any Questions Add Me On MSN: 

It's A Little Hard At First But Keep At It And You Will Get It!
            
Submit corrections

↑ Back to top | Tablatures and chords for acoustic guitar and electric guitar, ukulele, drums are parodies/interpretations of the original songs. You may use it for private study, scholarship, research or language learning purposes only