» » »

Brand New - Jude Law And A Semester Abroad Tabs

Artists:  A B C D E F G H I J K L M N O P Q R S T U V W X Y Z # 

Jude Law And A Semester Abroad Tabs

(ver. 3) Click to play this song!
Brand New
 Rating:
4/5 (4 votes)

 Jude Law And A Semester Abroad lessons Tabs too difficult? Try these video lessons and learn fast
 
                Awesome song by brand new, these guys have a gift and you better recognoize!
If you dont know your standard notations you shouldnt be playing this song so
go practice johnny boy...



Intro
Guitar 1: From the beginning
e-----------------------------------------------
B-----------------------------------------------
G--------8p7----------7p5----------------------- (x4)
D------8------------8------88-8-8-8-8-8-8-88-8--
A--------------------------88-8-8-8-8-8-8-88-8--
E--8-8----------6-6--------66-6-6-6-6-6-6-66-6--
pm . .          . .        ..   .     .   ..

Guitar 2: After guitar 1 plays twice
e-----------------------------------------------
B-----------------------------------------------
G--8888888888--8888888888-----------------------
D--8888888888--8888888888--8888888888888888888-- (x2)
A--6666666666--5555555555--8888888888888888888--
E--------------------------6666666666666666666--
 pm..........  ..........  ...................


Prechorus
Guitar 1:
e---------------------------
B---------------------------
G--------8p7----------7p5--- (x4)
D------8------------8-------
A---------------------------
E--8-8----------6-6---------
pm . .          . .        

Guitar 2: Nothing

Both Guitars:
e--------------------------
B--------------------------
G--------------------------
D--8888888888--6666666666--
A--8888888888--6666666666--
E--6666666666--4444444444--


Chorus
Both Guitars:
e------------------------------------------
B------------------------------------------
G--88x--88x--------------------------------
D--88x--88x--1010101010101010--8888888888--
A--66x--55x--1010101010101010--8888888888--
E-------------8-8-8-8-8-8-8-8--6666666666--

Guitar 1:
e-----------------------------------------------------------------------
B-----------------------------------------------------------------------
G--888-777------888-777--------888-777----1010-88-77--------------------
D----------5-8-----------8-10-----------88-----------88-1010-1212-1313--
A-----------------------------------------------------------------------
E-----------------------------------------------------------------------

Guitar 2:
e------------------------------------------------------------
B------------------------------------------------------------
G--8888888888--8888888888------------------------------------
D--8888888888--8888888888--10101010101010101010--8888888888--
A--6666666666--5555555555--10101010101010101010--8888888888--
E---------------------------8-8-8-8-8-8-8-8-8-8--6666666666--

Verse
Prechorus
Chorus

Bridge
Guitar 1:
e--------
B--------
G-8~-8~--
D-8~-6~--
A-6~-6~--
E--------

e---------------------------------------------------------------------------
B---------------------------------------------------------------------------
G------8------8--------8-----8------88-8-88-8-88-8-88-8-88-8-88-8-88-8-88-8- (x3)
D---8------8-----8--8-----8-----8---88-8-88-8-88-8-88-8-88-8-88-8-88-8-88-8-
A-66-66--66-66-66-55-55-55-55-55----xx-x-xx-x-xx-x-xx-x-xx-x-xx-x-xx-x-xx-x-
E-----------------------------------88-8-88-8-88-8-88-8-66-6-66-6-66-6-66-6-
  .. ..  .. .. .. .. .. .. .. ..   ..   ..   ..   ..   ..   ..   ..   ..

Guitar 2:
e--------------------------------------------------------------------------------
B--------------------------------------------------------------------------------
D--8~----8~---8~---8~------------------------------------------------------------
D--8~----8~---8~---8~-----1010-10-1010-10-1010-10-1010-10----88-8-88-8-88-8-88-8-
A--6~----6~---6~---5~-----1010-10-1010-10-1010-10-1010-10----88-8-88-8-88-8-88-8-
E--------------------------8-8--8--8-8--8--8-8--8--8-8--8----66-6-66-6-66-6-66-6-
                           . .     . .     . .     . .       ..   ..   ..   ..

e-----------------------------------------------------------------------
B-----------------------------------------------------------------------
D----8~---8~------------------------------------------------------------
D----8~---8~-----1010-10-1010-10-1010-10-1010-10----88-8-88-8-88-8-88-8-
A----6~---5~-----1010-10-1010-10-1010-10-1010-10----88-8-88-8-88-8-88-8-
E----------------8-8--8--8-8--8--8-8--8--8-8--8-----66-6-66-6-66-6-66-6-
                 . .     . .     . .     . .        ..   ..   ..   ..
e----------
B----------
G--8~---8~-
D--8~---8~-
A--6~---5~-
E----------

Both Guitars:
e-----------------------------
B-----------------------------
G-----------------------------
D---10101010101010101010--8x--
A---10101010101010101010--8x--
E----8-8-8-8-8-8-8-8-8-8--6x--
     ...................

Outro
Both Guitars:
e-----------------------------------------------------------------
B-----------------------------------------------------------------
G--888888888888--888888888888-------------------------------------
D--888888888888--888888888888-666666666666--101010101010--888888--  (x4)
A--666666666666--555555555555-666666666666--101010101010--888888--
E-----------------------------444444444444---8-8-8-8-8-8--666666--

Guitar 1: after 2 times^
e-----------------------------------------------------------------------
B-----------------------------------------------------------------------
G--888-777------888-777--------888-777----1010-88-77-------------------- (x2)
D----------5-8-----------8-10-----------88-----------88-1010-1212-1313--
A-----------------------------------------------------------------------
E-----------------------------------------------------------------------

Both Guitars:
e------
B------
G--8~--
D--8~--
A--6~--
E------
            
Submit corrections


        Jude Law And A Semester Abroad lessons Hard to play? Try these video lessons and learn fast Jude Law And A Semester Abroad lessons
        
↑ Back to top | Tablatures and chords for acoustic guitar and electric guitar, ukulele, drums are parodies/interpretations of the original songs. You may use it for private study, scholarship, research or language learning purposes only