» » »

Brand New - Jude Law And A Semester Abroad Tabs

Artists:  A B C D E F G H I J K L M N O P Q R S T U V W X Y Z # 

Jude Law And A Semester Abroad Tabs

(ver. 1) Click to play this song!
Brand New
 Rating:
4/5 (4 votes)

 Jude Law And A Semester Abroad lessons Tabs too difficult? Try these video lessons and learn fast
 
                
NOTICE:

PM ::::: = palm mutes
h - hammer-one
p - pull-off

Brand New's guitarists tune their guitars down half a step.

verses

E|-------------------------------------------------------------------------------------|
B|-----5---7---------------------------------------------------------------------------|
G|-----4-----4-------------4----------4-----3---4---------4-4-4-4----------------------|
D|---6---6-----6---4-4-4--------------4-----4---4---------4-4-4-4----------------------|
A|-4-----4-------4-2-2---2------------------------6-6-6-6-2-2-2-2----------------------|
E|------------------------------4-4-4---4-4---4---4-4-4-4------------------------------|
PM : :   :         : :            : :   : :   :   : : : : : : : : 

prechorus


E|-------------------------------------------------------------------------------------|
B|---------5p4---4-------------------2p0---0--------------------------------------------|
G|-----4---------4---------------2---------2-------------------------------------------|
D|-6-6-6---------------------2-2-2-2-------2-------------------------------------------|
A|-4-4---4-----4-------------0-0-0-0-----0-0-------------------------------------------|
E|-------------------------------------------------------------------------------------|
PM : :   :     :             : :   :     :

for every time, youve fed the line
E|-------------------------------------------------------------------------------------|
B|-------------------------------------------------------------------------------------|
G|-4-4-4-4-4-4-4-4-4-4-4-4-4-4-4-4-2-2-2-2-2-2-2-2-2-2-2-2-2-2-2-2---------------------|
D|-4-4-4-4-4-4-4-4-4-4-4-4-4-4-4-4-2-2-2-2-2-2-2-2-2-2-2-2-2-2-2-2---------------------|
A|-2-2-2-2-2-2-2-2-2-2-2-2-2-2-2-2-0-0-0-0-0-0-0-0-0-0-0-0-0-0-0-0---------------------|
E|-------------------------------------------------------------------------------------|

chorus

E|-------------------------------------------------------------------------------------|
B|-------------------------------------------------------------------------------------|
G|-------------8-----8-6-6-6-6-6-6-6-6-6-6-6-6-6-6-6-6-4-4-4-4-4-4-4-4-4-4-4-4-4-4-4-4-|
D|-2----2------9-----9-6-6-6-6-6-6-6-6-6-6-6-6-6-6-6-6-4-4-4-4-4-4-4-4-4-4-4-4-4-4-4-4-|
A|-2----2------6-----6-4-4-4-4-4-4-4-4-4-4-4-4-4-4-4-4-2-2-2-2-2-2-2-2-2-2-2-2-2-2-2-2-|
E|-0----0------0-----0-----------------------------------------------------------------|

bridge


E|-------------------------------------------------------------------------------------|
B|-------------------------------------------------------------------------------------|
G|-----8h9-----11p9-----8h9-----9-----8h9-----11p9-----8h9-----9-----------------------|
D|-------------------------------------------------------------------------------------|
A|-7-7-----7-7------7-7-----7-7---6-6-----6-6------6-6-----6-6-------------------------|
E|-------------------------------------------------------------------------------------|
PM : :     : :      : :     : :   : :     : :      : :     : : 

E|-------------------------------------------------------------------------------------|
B|-------------------------------------------------------------------------------------|
G|-----9-------9--------9--------9--------9--------9--------9--------9-----------------|
D|-----9-------9--------9--------9--------9--------9--------9--------9-----------------|
A|-------------------------------------------------------------------------------------|
E|-9-9-----9-9------9-9------9-9------7-7------7-7------7-7------7-7-------------------|
PM : :     : :      : :      : :      : :      : :      : :      : :

outro
E|-------------------------------------------------------------------------------------|
B|-------------------------------------------------------------------------------------|
G|-9------8-----------------------6---------4----------------------------------------------|
D|-9------9-----------7-----------6---------4-----------------------------------------------|
A|-7------6-----------7-----------4---------2-----------------------------------------------|
E|--------------------5-----------------------------------------------------------------|


wade
            
Submit corrections


        Jude Law And A Semester Abroad lessons Hard to play? Try these video lessons and learn fast Jude Law And A Semester Abroad lessons
        
↑ Back to top | Tablatures and chords for acoustic guitar and electric guitar, ukulele, drums are parodies/interpretations of the original songs. You may use it for private study, scholarship, research or language learning purposes only